Oops, an error
Loading. Please wait.

Beeding Blasphemy Tab

233 views 1 this week
no commentswrite comment
1 2 3 4 5
3 more votes to show rating
add to favorites
launch autoscroll
font size
0
reset
how to read this tab
guitar tuner
Autoscroll
slow
fast
+/-
esc
set tempo
stop
Help us to improve Ultimate-Guitar.com Take our survey!
×
Difficulty
novice
-------------------------------------------------------------------------------
                             Bleeding Blasphemy - Antaeus
-------------------------------------------------------------------------------
Tabbed by: micclo
Email: miccloarch@gmail.com

Tuning: Standard

E||--------------------------------------------------------------------||
B||--------------------------------------------------------------------||
G||*------------------------------------------------------------------*||
D||*------------------------------------------------------------------*||
A||---6-6-6-6-6-6-6-6-6-6-6-6-6-6-6-6-5-5-5-5-5-5-5-5-5-5-5-5-5-5-5-5--||
E||---4-4-4-4-4-4-4-4-4-4-4-4-4-4-4-4-4-4-4-4-4-4-4-4-4-4-4-4-4-4-4-4--||


                                                                      
--------------------------------------------------------------------||
--------------------------------------------------------------------||
*------------------------------------------------------------------*||
*------------------------------------------------------------------*||
---3-3-3-3-3-3-3-3-3-3-3-3-3-3-3-3-2-2-2-2-2-2-2-2-2-2-2-2-2-2-2-2--||
---1-1-1-1-1-1-1-1-1-1-1-1-1-1-1-1-1-1-1-1-1-1-1-1-1-1-1-1-1-1-1-1--||


                                                                      
--------------------------------------------------------------------||
--------------------------------------------------------------------||
*------------------------------------------------------------------*||
*------------------------------------------------------------------*||
---6-6-6-6-6-6-6-6-6-6-6-6-6-6-6-6-5-5-5-5-5-5-5-5-5-5-5-5-5-5-5-5--||
---4-4-4-4-4-4-4-4-4-4-4-4-4-4-4-4-4-4-4-4-4-4-4-4-4-4-4-4-4-4-4-4--||


                                                                      
--------------------------------------------------------------------||
--------------------------------------------------------------------||
*------------------------------------------------------------------*||
*------------------------------------------------------------------*||
---3-3-3-3-3-3-3-3-3-3-3-3-3-3-3-3-2-2-2-2-2-2-2-2-2-2-2-2-2-2-2-2--||
---1-1-1-1-1-1-1-1-1-1-1-1-1-1-1-1-1-1-1-1-1-1-1-1-1-1-1-1-1-1-1-1--||


                                                                      
--------------------------------------------------------------------||
--------------------------------------------------------------------||
*------------------------------------------------------------------*||
*------------------------------------------------------------------*||
---6-6-6-6-6-6-6-6-6-6-6-6-6-6-6-6-5-5-5-5-5-5-5-5-5-5-5-5-5-5-5-5--||
---4-4-4-4-4-4-4-4-4-4-4-4-4-4-4-4-4-4-4-4-4-4-4-4-4-4-4-4-4-4-4-4--||


                                                                      
--------------------------------------------------------------------||
--------------------------------------------------------------------||
*------------------------------------------------------------------*||
*------------------------------------------------------------------*||
---3-3-3-3-3-3-3-3-3-3-3-3-3-3-3-3-2-2-2-2-2-2-2-2-2-2-2-2-2-2-2-2--||
---1-1-1-1-1-1-1-1-1-1-1-1-1-1-1-1-1-1-1-1-1-1-1-1-1-1-1-1-1-1-1-1--||


                                                                        
----------------------------------||----------------------------------||
----------------------------------||----------------------------------||
*--------------------------------*||*--------------------------------*||
*--------------------------------*||*--------------------------------*||
---6--6-6-6-6-6-6-5--5-5-5-5-5-5--||---3--3-3-3-3-3-3-2--2-2-2-2-2-2--||
---4--4-4-4-4-4-4-4--4-4-4-4-4-4--||---1--1-1-1-1-1-1-1--1-1-1-1-1-1--||


                                                                        
----------------------------------||----------------------------------||
----------------------------------||----------------------------------||
*--------------------------------*||*--------------------------------*||
*--------------------------------*||*--------------------------------*||
---6--6-6-6-6-6-6-5--5-5-5-5-5-5--||---3--3-3-3-3-3-3-2--2-2-2-2-2-2--||
---4--4-4-4-4-4-4-4--4-4-4-4-4-4--||---1--1-1-1-1-1-1-1--1-1-1-1-1-1--||


                                                                        
----------------------------------||----------------------------------||
----------------------------------||----------------------------------||
*--------------------------------*||*--------------------------------*||
*--------------------------------*||*--------------------------------*||
---6--6-6-6-6-6-6-5--5-5-5-5-5-5--||---3--3-3-3-3-3-3-2--2-2-2-2-2-2--||
---4--4-4-4-4-4-4-4--4-4-4-4-4-4--||---1--1-1-1-1-1-1-1--1-1-1-1-1-1--||


                                                                        
----------------------------------||----------------------------------||
----------------------------------||----------------------------------||
*--------------------------------*||*--------------------------------*||
*--------------------------------*||*--------------------------------*||
---6--6-6-6-6-6-6-5--5-5-5-5-5-5--||---3--3-3-3-3-3-3-2--2-2-2-2-2-2--||
---4--4-4-4-4-4-4-4--4-4-4-4-4-4--||---1--1-1-1-1-1-1-1--1-1-1-1-1-1--||


                                                                    3x
--------------------------------------------------------------------||
--------------------------------------------------------------------||
*------------------------------------------------------------------*||
*------------------------------------------------------------------*||
---6-6-6-6-7-7-6-6-5-5-5-5-6-6-5-5-8-8-8-8-9-9-8-8-7-7-7-7-8-8-7-7--||
---4-4-4-4-4-4-4-4-3-3-3-3-3-3-3-3-6-6-6-6-6-6-6-6-5-5-5-5-5-5-5-5--||


                                                                        
----------------------------------||----------------------------------||
----------------------------------||----------------------------------||
*--------------------------------*||*--------------------------------*||
*--------------------------------*||*--------------------------------*||
---6--6-6-6-6-6-6-5--5-5-5-5-5-5--||---3--3-3-3-3-3-3-2--2-2-2-2-2-2--||
---4--4-4-4-4-4-4-4--4-4-4-4-4-4--||---1--1-1-1-1-1-1-1--1-1-1-1-1-1--||


                                                                        
----------------------------------||----------------------------------||
----------------------------------||----------------------------------||
*--------------------------------*||*--------------------------------*||
*--------------------------------*||*--------------------------------*||
---6--6-6-6-6-6-6-5--5-5-5-5-5-5--||---3--3-3-3-3-3-3-2--2-2-2-2-2-2--||
---4--4-4-4-4-4-4-4--4-4-4-4-4-4--||---1--1-1-1-1-1-1-1--1-1-1-1-1-1--||


                                                                      
--------------------------------------------------------------------||
--------------------------------------------------------------------||
*------------------------------------------------------------------*||
*------------------------------------------------------------------*||
---6-6-6-6-7-7-6-6-5-5-5-5-6-6-5-5-8-8-8-8-9-9-8-8-7-7-7-7-8-8-7-7--||
---4-4-4-4-4-4-4-4-3-3-3-3-3-3-3-3-6-6-6-6-6-6-6-6-5-5-5-5-5-5-5-5--||


                                                                       3x
-------------------||------------------------|-------------------------||
-------------------||------------------------|-------------------------||
-------------------||*-----------------------|------------------------*||
-------------------||*-----------------------|------------------------*||
--6----------------||---6----6----6--5--4----|--6----6----6--5--4--5---||
--4----------------||---4----4----4--3--2----|--4----4----4--3--2--3---||


                                                      3x
---------------------------|--------------------------||
---------------------------|--------------------------||
*--------------------------|-------------------------*||
*--------------------------|-------------------------*||
---6--6--6--6--7--7--7--7--|--6--6--6--6--6--5--4-----||
---4--4--4--4--5--5--5--5--|--4--4--4--4--4--3--2-----||


                                                  3x                            
------------------------|-------------------------||---------------------------|
------------------------|-------------------------||---------------------------|
*-----------------------|------------------------*||*--------------------------|
*-----------------------|------------------------*||*--------------------------|
---6----6----6--5--4----|--6----6----6--5--4--5---||---6--6--6--6--7--7--7--7--|
---4----4----4--3--2----|--4----4----4--3--2--3---||---4--4--4--4--5--5--5--5--|


                            
--------------------------||
--------------------------||
-------------------------*||
-------------------------*||
--6--6--6--6--6--5--4-----||
--4--4--4--4--4--3--2-----||


                                                                      
--------------------------------------------------------------------||
--------------------------------------------------------------------||
*------------------------------------------------------------------*||
*------------------------------------------------------------------*||
---6-6-6-6-6-6-6-6-6-6-6-6-6-6-6-6-5-5-5-5-5-5-5-5-5-5-5-5-5-5-5-5--||
---4-4-4-4-4-4-4-4-4-4-4-4-4-4-4-4-4-4-4-4-4-4-4-4-4-4-4-4-4-4-4-4--||


                                                                      
--------------------------------------------------------------------||
--------------------------------------------------------------------||
*------------------------------------------------------------------*||
*------------------------------------------------------------------*||
---3-3-3-3-3-3-3-3-3-3-3-3-3-3-3-3-2-2-2-2-2-2-2-2-2-2-2-2-2-2-2-2--||
---1-1-1-1-1-1-1-1-1-1-1-1-1-1-1-1-1-1-1-1-1-1-1-1-1-1-1-1-1-1-1-1--||


                                                                      
--------------------------------------------------------------------||
--------------------------------------------------------------------||
*------------------------------------------------------------------*||
*------------------------------------------------------------------*||
---6-6-6-6-6-6-6-6-6-6-6-6-6-6-6-6-5-5-5-5-5-5-5-5-5-5-5-5-5-5-5-5--||
---4-4-4-4-4-4-4-4-4-4-4-4-4-4-4-4-4-4-4-4-4-4-4-4-4-4-4-4-4-4-4-4--||


                                                                      
--------------------------------------------------------------------||
--------------------------------------------------------------------||
*------------------------------------------------------------------*||
*------------------------------------------------------------------*||
---3-3-3-3-3-3-3-3-3-3-3-3-3-3-3-3-2-2-2-2-2-2-2-2-2-2-2-2-2-2-2-2--||
---1-1-1-1-1-1-1-1-1-1-1-1-1-1-1-1-1-1-1-1-1-1-1-1-1-1-1-1-1-1-1-1--||


                                                                        
----------------------------------||----------------------------------||
----------------------------------||----------------------------------||
*--------------------------------*||*--------------------------------*||
*--------------------------------*||*--------------------------------*||
---6--6-6-6-6-6-6-5--5-5-5-5-5-5--||---3--3-3-3-3-3-3-2--2-2-2-2-2-2--||
---4--4-4-4-4-4-4-4--4-4-4-4-4-4--||---1--1-1-1-1-1-1-1--1-1-1-1-1-1--||


                                                                        
----------------------------------||----------------------------------||
----------------------------------||----------------------------------||
*--------------------------------*||*--------------------------------*||
*--------------------------------*||*--------------------------------*||
---6--6-6-6-6-6-6-5--5-5-5-5-5-5--||---3--3-3-3-3-3-3-2--2-2-2-2-2-2--||
---4--4-4-4-4-4-4-4--4-4-4-4-4-4--||---1--1-1-1-1-1-1-1--1-1-1-1-1-1--||


                                                                    5x       
--------------------------------------------------------------------||-----||
--------------------------------------------------------------------||-----||
*------------------------------------------------------------------*||-----||
*------------------------------------------------------------------*||-----||
---6-6-6-6-7-7-6-6-5-5-5-5-6-6-5-5-8-8-8-8-9-9-8-8-7-7-7-7-8-8-7-7--||--6--||
---4-4-4-4-4-4-4-4-3-3-3-3-3-3-3-3-6-6-6-6-6-6-6-6-5-5-5-5-5-5-5-5--||--4--||


Suggest correction
Give kudos to tab author, rate the tab!
1 2 3 4 5
comments
print report bad tab
guest
You may want to rate the tab now too:
select rating
Wanna post a correction for this tab? Suggest correction