Oops, an error
Loading. Please wait.

The Golden Years Tab

2,184 views 1 this week
no commentswrite comment
1 2 3 4 5
1 last vote to show rating
add to favorites
launch autoscroll
font size
0
reset
how to read this tab
guitar tuner
Autoscroll
slow
fast
+/-
esc
set tempo
stop
Help us to improve Ultimate-Guitar.com Take our survey!
×
Author
====================================
  Antagonist AD - The Golden Years
    www.myspace.com/antagonistad
====================================

Tuning: Drop C (low to high: CGCFAD)

email/msn: prangers0@hotmail.com

D |---------------------------------|
A |---------------------------------|
F |---------------------------------|
C |---------------------------------|
G |-6h9---5---6h8---5---6---5---8p5-| x12 (cut last few notes off on last time)
C |-----0---0-----0---0---0---0-----|
PM      .   .     .   .   .   .


|---------------------------------|
|---------------------------------|
|---------------------------------|
|-0~-------------------------0-0--|
|-0~-------------------------0-0--|
|-0~-------------------------0-0--|
                             . .

|---------------------------------|
|---------------------------------|
|---------------------------------|
|-0~-------------------------0----|
|-0~-------------------------0----|
|-0~-------------------------0----|

|---------------------------------|    |---------------------------|
|---------------------------------|    |---------------------------|
|---------------------------------|    |---------------------------|
|-0-0-1-0-0-0-3\1-0-0-0-1/3-0-4\3-|    |-0-0-1-0-0-0-0-3~--0-0-4---|
|-0-0-1-0-0-0-3\1-0-0-0-1/3-0-4\3-| x3 |-0-0-1-0-0-0-0-3~--0-0-4---|
|-0-0-1-0-0-0-3\1-0-0-0-1/3-0-4\3-|    |-0-0-1-0-0-0-0-3~--0-0-4---|
PM  .   .   .     .   .     .              .   .   . .     . .
Play this twice.

Repeat first riff, then:

|-----------------|    |---------------------|
|-----------------|    |---------------------|
|-----------------|    |---------------------|
|-0-0-0-0-000-0-0-|    |-1-0---3-1---1-3-1-0-|
|-0-0-0-0-000-0-0-|    |-1-0---3-1---1-3-1-0-|
|-0-0-0-0-000-0-0-| x3 |-1-0---3-1---1-3-1-0-|
  . . . . ... . .                

Then repeat second riff.

Done!




| /  slide up
| \  slide down
| h  hammer-on
| p  pull-off
| ~  vibrato
| +  harmonic
| x  Mute note
Suggest correction
Give kudos to tab author, rate the tab!
1 2 3 4 5
comments
print report bad tab
guest
You may want to rate the tab now too:
select rating
Wanna post a correction for this tab? Suggest correction