Oops, an error
Loading. Please wait.

Impossible To Place chords

379 views 6 this week
no commentswrite comment
1 2 3 4 5
x 4
add to favorites
×
Save as Personal and add changes to this tab that will be seen only by you. Learn more ›
×
You can save this tab as Personal to edit and correct it or add notes. All changes will be seen only by you. Learn more »
launch autoscroll
font size
0
reset
transpose
0
reset
display chords
guitar tuner
edit
Autoscroll
slow
fast
+/-
esc
set tempo
stop
Strumming
There is no strumming pattern for this song yet. and get +5 IQ
[Intro Chords]

E   C#m
E   C#m


[Intro Riff]

e|---------------------------------------------------------------------------|
B|---------------------------------------------------------------------------|
G|--9-9-9-9-8-8-8-8-9-9-9-8--8--8-6--4---------------------------------------|
D|--------------------------------------6-4--6-------------------------------|
A|---------------------------------------------------------------------------|
E|---------------------------------------------------------------------------|


[Verse]

E                                         C#m
Spirit floating with the wind through the valley desert air
  E                               C#m
I saw you in a wedding dress with long, dirty blonde hair


[Pre-Chorus]

This is also mostly chords with some tremolo picking I didn't want to figure out.
There's a little diddly do after the E chord that goes like this:

e|-7--9-11-9-7---------------------------------------------------------------|
B|---------------------------------------------------------------------------|
G|---------------------------------------------------------------------------|
D|---------------------------------------------------------------------------|
A|---------------------------------------------------------------------------|
E|---------------------------------------------------------------------------|

      A                             E
Now I know what they mean when they say
     B                          C#m
Some feelings are impossible to place


[Verse]

E                                  C#m
Rest my head onto your legs with a thousand things to say
E                                      C#m
Saw you shoot some bottle round and it sends me on my way


[Pre-Chorus]

e|-7--9-11-9-7---------------------------------------------------------------|
B|---------------------------------------------------------------------------|
G|---------------------------------------------------------------------------|
D|---------------------------------------------------------------------------|
A|---------------------------------------------------------------------------|
E|---------------------------------------------------------------------------|

            A                            E 
Now I know what they mean when they say
     B                          C#m
Some feelings are impossible to place


[Chorus]

E           C#m
Stay, stay around me
        A
For the evening
          B
You don't have to be alone
E          C#m
Stay, stay around me
        A
For the evening
        B
I can't bear to be alone


[Bridge]

C#m           E
        Stay around me
C#m           E     B
        Stay around me


[Instrumental

E   C#m
E   C#m


[Chorus]

E           C#m
Stay, stay around me
        A
For the evening
          B
You don't have to be alone
E          C#m
Stay, stay around me
        A
For the evening
        B
I can't bear to be alone


[Outro]

A            E
B            C#m

            
            
Suggest correction
Creating personal tab
Creating personal tab
You can edit any tab online and save it as your Personal.

You can edit, replace or remove any tab part or add personal notes – all changes will be seen only by you.

Personal tabs can be accessed anytime from any device, even offline.
Learn more »
comments
print report bad tab
guest
Wanna post a correction for this tab? Suggest correction