Oops, an error
Loading. Please wait.

Game Over bass

16 views 1 this week
no commentswrite comment
1 2 3 4 5
3 more votes to show rating
add to favorites
×
Save as Personal and add changes to this tab that will be seen only by you. Learn more ›
×
You can save this tab as Personal to edit and correct it or add notes. All changes will be seen only by you. Learn more »
launch autoscroll
font size
0
reset
guitar tuner
edit
Autoscroll
slow
fast
+/-
esc
set tempo
stop
About this tab version
Instead of just giving out the riff once, I made sure to include all parts and how many times they are played. Was this info helpful? Yes No
-------------------------------------------------------------------------------
                             GAME OVER - ANTELOPE
-------------------------------------------------------------------------------
Tabbed by: lucbuzz
email: lucbuzz@gmail.com


The bassline in this song does not change at all in the song, in this tab 
I will show how many times the line is played in each. I highly recommend 
playing this song with a pick to get the tone as close as possible to what
Bee Elvy plays with on the song.


[Intro]

G|------------------5-7-----5-----|
D|------<7>-<7>-5-5-----0-0---7---|
A|-0--0---------------------------|
E|--------------------------------|x6


[Verse]
 
 0:28
G|------------------5-7-----5-----|
D|------<7>-<7>-5-5-----0-0---7---|
A|-0--0---------------------------|
E|--------------------------------|x8


[Bridge]

 0:59
G|------------------5-7-----5-----|
D|------<7>-<7>-5-5-----0-0---7---|
A|-0--0---------------------------|
E|--------------------------------|x4

[Verse 2]
 
 1:13
G|------------------5-7-----5-----|
D|------<7>-<7>-5-5-----0-0---7---|
A|-0--0---------------------------|
E|--------------------------------|x8

{Bridge 2]

 
G|------------------5-7-----5-----|
D|------<7>-<7>-5-5-----0-0---7---|
A|-0--0---------------------------|
E|--------------------------------|x4

[Verse 3]

 1:59
G|------------------5-7-----5-----|
D|------<7>-<7>-5-5-----0-0---7---|
A|-0--0---------------------------|
E|--------------------------------|x8


[Outro]

G|------------------5-7-----5-----|
D|------<7>-<7>-5-5-----0-0---7---|
A|-0--0---------------------------|
E|--------------------------------|x4



In conclusion, this is the same riff played 42x.



************************************

|<> natural harmonic

************************************

            
            
Suggest correction
Creating personal tab
Creating personal tab
You can edit any tab online and save it as your Personal.

You can edit, replace or remove any tab part or add personal notes – all changes will be seen only by you.

Personal tabs can be accessed anytime from any device, even offline.
Learn more »
Give kudos to tab author, rate the tab!
1 2 3 4 5
comments
print report bad tab
guest
You may want to rate the tab now too:
select rating
Wanna post a correction for this tab? Suggest correction