Oops, an error
Loading. Please wait.

Wandering Ghost tab

13 views 3 this week
no commentswrite comment
1 2 3 4 5
3 more votes to show rating
add to favorites
×
Save as Personal and add changes to this tab that will be seen only by you. Learn more ›
×
You can save this tab as Personal to edit and correct it or add notes. All changes will be seen only by you. Learn more »
launch autoscroll
font size
0
reset
how to read this tab
guitar tuner
edit
Autoscroll
slow
fast
+/-
esc
set tempo
stop
About this tab version
This is the only version of this song and only the 2nd Antelope song. I did want to make sure that the tab was done in a good format but making sure there were creators notes that were easy to understand since the song is short and has 2 parts. Was this info helpful? Yes No
Artist: Antelope
Song: Wandering Ghost
Album: Reflector (2007)
Dischord Records 

[Intro/Verse]
e|-----7-------9------|
B|---8---8-7-8---8-7--|
G|-9------------------|
D|--------------------|
A|--------------------|
E|--------------------| (x24) [8 times make up for the intro]
[^] All notes are played short, none of the notes should be sustained

[Bridge]
e|-10-10-12----10-10-12-12-----|
B|----------12-------------12--|
G|-----------------------------|
D|-----------------------------|
A|-----------------------------|
E|-----------------------------| (x4)

[Verse 2]
e|-----7-------9------|
B|---8---8-7-8---8-7--|
G|-9------------------|
D|--------------------|
A|--------------------|
E|--------------------| (x16)

[Bridge 2]
e|-10-10-12----10-10-12-12-----|
B|----------12-------------12--|
G|-----------------------------|
D|-----------------------------|
A|-----------------------------|
E|-----------------------------| (x8)

[Last time (8th time)through Second Bridge]
e|-10-10-12----10-10-12-12------|
B|----------12-------------12---|
G|----------------------------9-|
D|------------------------------|
A|------------------------------|
E|------------------------------|

            
            
Suggest correction
Creating personal tab
Creating personal tab
You can edit any tab online and save it as your Personal.

You can edit, replace or remove any tab part or add personal notes – all changes will be seen only by you.

Personal tabs can be accessed anytime from any device, even offline.
Learn more »
Give kudos to tab author, rate the tab!
1 2 3 4 5
comments
print report bad tab
guest
You may want to rate the tab now too:
select rating
Wanna post a correction for this tab? Suggest correction