Oops, an error
Loading. Please wait.

Momento Mori tab

version 1
version 1

Whole song

Interactive

740 views 1 this week
1 commentread comment
1 2 3 4 5
1 last vote to show rating
add to favorites
×
Save as Personal and add changes to this tab that will be seen only by you. Learn more ›
×
You can save this tab as Personal to edit and correct it or add notes. All changes will be seen only by you. Learn more »
launch autoscroll
font size
0
reset
how to read this tab
guitar tuner
edit
Autoscroll
slow
fast
+/-
esc
set tempo
stop
Author
Difficulty
Antemasque-Momento Mori

This is my first tab for this band.
I'm gonna tab every one of their songs that aren't already tabbed out.

This is a very cool song.
Without further a due, here we go.
I'll post the chords above the tab.


Intro:

Gtr.2

   Gm     Bb    Gm     Bb     Gm     Bb     Eb

e|---0-----0------0------0------0------0----666666666---|
B|----3-----6------3----6-6------3----6-6---888888888---|
G|------------------------------------------888888888---|
D|-5------8-----5------8------5------8------------------|
A|------------------------------------------------------|
E|-3------6-----3------6------3------6------------------|


Verse:

Gtr.1

  Cm        Bb     G#                                  Gm     B

|--------------------------------------------------------------------|
|-8-8---8---66--8--44--4--44--6-6-6--44--4--44--6-6-6----------------|
|-8-8---8---77--7--55--5--55--5-5-5--55--5--55--5-5-5----------------|x2
|-1010--10--88--8--66--6--66--6-6-6--66--6--66--6-6-6----------------|
|-1010--10--88--8--66--6--66--6-6-6--66--6--66--6-6-6----------------|
|--------------------------------------------------------------------|

Gtr.2-comes at the end of this part, let it ring at the end

|---------------------------------------------------------------------|
|---------------------------------------------------------3------8----|
|----------------------------------------------------------3------7---|x2
|--------------------------------------------------------5------9-----|
|---------------------------------------------------------------------|
|-------------------------------------------------------3-----/7------|

Pre-chorus:


  G#               G                 G#               G                Bb

|-8-8-8-8-8-8-8-8--1515151515151515--8-8-8-8-8-8-8-8-----------------------|
|-9-9-9-9-9-9-9-9--1212121212121212--9-9-9-9-9-9-9-9--------12--------/15--|
|-8-8-8-8-8-8-8-8--1212121212121212--8-8-8-8-8-8-8-8-----------12-----/15--|
|--------------------------------------------------------12-------12--/15--|
|-----------------------------------------------------10--------------/13--|
|--------------------------------------------------------------------------|

Chorus:

  Eb                                          Cm

|-------------------------------------------------------------------------------|
|----------------------8-8--------8-8-------------------------------------------|
|-888--8-10101010--10-------1010-------1010--777--7-5555--5--7-7--5-5--7-7--5-5-|x2
|-888--8-8-8-8-8---8---8-8--8-8---8-8--8-8---555--5-5555--5--5-5--5-5--5-5--5-5-|
|-666--6-6-6-6-6---6---6-6--6-6---6-6--6-6---333--3-3333--3--3-3--3-3--3-3--3-3-|
|-------------------------------------------------------------------------------|

|-3-3-3-3--------|
|----------6-6-6-|
|----------------|
|----------------|
|----------------|
|----------------|




Back to verse:


Gtr.1

  Cm        Bb     G#                                  Gm     B

|--------------------------------------------------------------------|
|-8-8---8---66--8--44--4--44--6-6-6--44--4--44--6-6-6----------------|
|-8-8---8---77--7--55--5--55--5-5-5--55--5--55--5-5-5----------------|x2
|-1010--10--88--8--66--6--66--6-6-6--66--6--66--6-6-6----------------|
|-1010--10--88--8--66--6--66--6-6-6--66--6--66--6-6-6----------------|
|--------------------------------------------------------------------|

Gtr.2

|---------------------------------------------------------------------|
|---------------------------------------------------------3------8----|
|----------------------------------------------------------3------7---|x2
|--------------------------------------------------------5------9-----|
|---------------------------------------------------------------------|
|-------------------------------------------------------3-----/7------|



Pre-chorus:


  G#               G                 G#               G                Bb

|-8-8-8-8-8-8-8-8--1515151515151515--8-8-8-8-8-8-8-8-----------------------|
|-9-9-9-9-9-9-9-9--1212121212121212--9-9-9-9-9-9-9-9--------12--------/15--|
|-8-8-8-8-8-8-8-8--1212121212121212--8-8-8-8-8-8-8-8-----------12-----/15--|
|--------------------------------------------------------12-------12--/15--|
|-----------------------------------------------------10--------------/13--|
|--------------------------------------------------------------------------|



Chorus:

  Eb                                          Cm

|-------------------------------------------------------------------------------|
|----------------------8-8--------8-8-------------------------------------------|
|-888--8-10101010--10-------1010-------1010--777--7-5555--5--7-7--5-5--7-7--5-5-|x2
|-888--8-8-8-8-8---8---8-8--8-8---8-8--8-8---555--5-5555--5--5-5--5-5--5-5--5-5-|
|-666--6-6-6-6-6---6---6-6--6-6---6-6--6-6---333--3-3333--3--3-3--3-3--3-3--3-3-|
|-------------------------------------------------------------------------------|

|-------------3--|
|-6-6-6-6-6-6----|
|----------------|
|----------------|
|----------------|
|----------------|



Bridge:

Play these chords in barre form.

Eb  Bb  Cm    Gm  Bb  Eb   x2

The third time it goes like this:

Eb  Bb  Cm    Gm  Bb    Gm  Bb    Gm  Bb    Eb



Then back to chorus:

  
  Eb                                          Cm

|-------------------------------------------------------------------------------|
|----------------------8-8--------8-8-------------------------------------------|
|-888--8-10101010--10-------1010-------1010--777--7-5555--5--7-7--5-5--7-7--5-5-|x2
|-888--8-8-8-8-8---8---8-8--8-8---8-8--8-8---555--5-5555--5--5-5--5-5--5-5--5-5-|
|-666--6-6-6-6-6---6---6-6--6-6---6-6--6-6---333--3-3333--3--3-3--3-3--3-3--3-3-|
|-------------------------------------------------------------------------------|

|-3-3-3-3--------|
|----------6-6-6-|
|----------------|
|----------------|
|----------------|
|----------------|



Outro:


  G#             Bb

|--------------------------------|
|-6--44--66--44--88--66--88--66--|
|-5--55--55--55--77--77--77--77--|x3
|-6--66--66--66--88--88--88--88--|
|-6--66--66--66--88--88--88--88--|
|--------------------------------|


End on:

  Eb

|-----|
|-8~--|
|-8~--|
|-8~--|
|-6~--|
|-----|


That's it. I hope this helps, I thinks it's pretty accurate so check it out. Thanks!


Suggest correction
Creating personal tab
Creating personal tab
You can edit any tab online and save it as your Personal.

You can edit, replace or remove any tab part or add personal notes – all changes will be seen only by you.

Personal tabs can be accessed anytime from any device, even offline.
Learn more »
Give kudos to tab author, rate the tab!
1 2 3 4 5
comments
print report bad tab
1 comment total.
0 reply
marckorozco 10 Mar 15, 2016 07:30 AM

Thank, good song...

guest
You may want to rate the tab now too:
select rating
Wanna post a correction for this tab? Suggest correction