Oops, an error
Loading. Please wait.

Silent Divide intro tab

version 2
version 2

Intro

Whole song

Interactive

1,749 views 1 this week
4 commentsread comments
1 2 3 4 5
3 more votes to show rating
add to favorites
×
Save as Personal and add changes to this tab that will be seen only by you. Learn more ›
×
You can save this tab as Personal to edit and correct it or add notes. All changes will be seen only by you. Learn more »
launch autoscroll
font size
0
reset
how to read this tab
guitar tuner
edit
Autoscroll
slow
fast
+/-
esc
set tempo
stop
The Silent Divide - Anterior

Tabbed by:Bullet

Tuning:DGCFAD
Intro: play once with ending one and once with ending two
                                                                 ending 1
D|-------------------------|---------------------------------|---------------|
A|-------------------------|---------------------------------|---------------|
F|-------------------------|---------------------------------|---------------|
C|---------------7h9p9-----|------------7--------------------|--2-4--5-------|
G|-7--5-7-10-9--------10-9-|--7---10-9----10----9h10p10-7/5--|-2-2-22-2------|
D|--00-0-0--0--00----------|----88--8----8---88--------------|---------------|
pm  .. . .  .  ..    ^          ..  .    .   ..
        play this x2 ^

 ending 1 cont.            ending 2
|-------------|-------------------------------|
|-------------|-------------------------------|
|-------------|------------------------5h7h9--|
|--2-4--5-----|------------4h5h7-5h7h9--------|
|-3-3-33-3----|--5---3h5h7--------------------|
|-------------|-------------------------------|
 Verse:play x2
|----------------------------------------------------------------------------|
|----------------------------------------------------------------------------|
|----------------------------------------------------------------------------|
|----------------------------------------------------4h5h7---------5-4-------|
|-7--5-7------------10-9h10----7--5-7-----------3h5h7--------3-3-3--3--3-3-3-|
|--00-0---0-0-0-000-------------00-0--0-0-0-000------------------------------|
   .. .   . . . ...             .. .  . . . ...                . .  .  . . .
|----------------------------------|
|----------------------------------|
|----------------------------------|
|-----5-4h5----2-4--5----2-4--5----|
|-333--3------2-2-22-2--3-3-33-3---|
|----------------------------------|
  ...
Chorus:play x2
|----------------------------------------------------------------------------|
|----------------------------------------------------------------------------|
|----------------------------------------------------------------12-11-12----|
|-9--7--9/-------9-7-9--9---7-9---------------9--7-9-------9-7-9--x--x--x----|
|-7--5--7/-------7-5-7--7---5-7---------------7--5-7-------7-5-7-10--9-10----|
|--00-0----00-000-0-------00-0--00-000-00-000--00----00-000-0----------------|
   .. .    .. ... .       .. .  .. ... .. ...  ..    .. ... .
|----------|
|----------|
|-14-12-11-|
|--x--x--x-|
|-12-10--9-|
|----------|
Next Riff:
|----------------------------------------------------------------------------|
|----------------------------------------------------------------------------|
|----------------------------------------------------------------------------|
|----------------------------------------------------------------------------|
|-7-7-7-7-9-10-9-9h10--7-7-7-7-9-10--9h10p10-7/5--7-7-7-7-9-10-9-9h10--7-7---|
|--8-8-8-8-8--8-8-------8-8-8-8-8------------------0-0-0-0-0--0-0-------0-0--|
   . . . . .  . .       . . . . .                  . . . . .  . .       . .
|---------------------|------------------------------------------------------|
|---------------------|------------------------------------------------------|
|---------------------|------------------------------------------------------|
|---------------------|------------------------------------------------------|
|-7-7-9-10-9h10p10-7/5|-7--7--9--10--9-9h10--7--7--9--10--9h10p10-7/5--7--7--|
|--0-0-0--------------|--88-88-88--88-8-------88-88-88--88--------------00---|
   . . .                 .. .. ..  .. .       .. .. ..  ..              ..
|---------------------------------------------|             ^
|---------------------------------------------|             ^
|---------------------------------------------|        << play x2
|---------------------------------------------|
|---9--10---9-9h10--7--7--9--10---9h10p10-7/5-|
|-00-00--00--0-------00-00-00--00-------------|
  .. ..  ..  .       .. .. ..  ..
|----------------------------------------------------------------------------|
|----------------------------------------------------------------------------|
|----------------2h4---------------------------------------------------------|
|--------------------------------------------------------5-------------------|
|-7-5-7-5-7-5-3------------------------------------------3-------------------|
|--0-0-0-0-0-0-0-------------------------------------------------------------|
   . . . . . . .   ^play x3 like this, on the 4th end with ^ instead of 2h4

then go back and play the Verse
after you play through the verse the 2nd time end with this
                            then Bridge:
|--------------------------|----------------------|
|--------------------------|----------------------|
|--------------------------|----------------------|
|--------------------------|----------------------|
|-7--5-10p9---7--10-10p9---|-22-22-222222-22-22---|
|--00------10--88-------10-|-00-00-000000-00-00-/-|

I will work on the rest later.

            
            
Suggest correction
Creating personal tab
Creating personal tab
You can edit any tab online and save it as your Personal.

You can edit, replace or remove any tab part or add personal notes – all changes will be seen only by you.

Personal tabs can be accessed anytime from any device, even offline.
Learn more »
Give kudos to tab author, rate the tab!
1 2 3 4 5
comments
print report bad tab
4 comments total. Showing first comments.
0 reply
BulletsToBlood 46 Jun 30, 2008 07:32 AM

hey sorry ending 1 is supposed to be over this
instead of over that 2nd part D|-----------------------
A|-----------------------
F|--2-4--5---------------
C|-2-2-22-2--------------
G|-----------------------
D|-----------------------

0 reply
BulletsToBlood 46 Jul 01, 2008 06:36 AM

ok I fixed it!

0 reply
custom@prophecy 10 Jan 14, 2011 01:52 PM

ah the rest isnt getting done is it? but good tab as far as it is. next part is

D|----------------------------------------------------------
A|----------------------------------------------------------
F|---12--------14141414---16-------16\141414141414141414\--- X2
C|----x---X30---x-x-x-x----x---X16--x--x-x-x-x-x-x-x-x-x----
G|---10--------12121212---14-------14\121212121212121212\---
D|----------------------------------------------------------

only the last part after the 16

--16---
---x---
--14---

--16\1414141414\12121212121212
---x--x-x-x-x-x--x-x-x-x-x-x-x
--14\1212121212\10101010101010

might even start finishing the rest off as tab if this doesnt actually get done

guest
You may want to rate the tab now too:
select rating
Wanna post a correction for this tab? Suggest correction