Oops, an error
Loading. Please wait.

Top Of The World tab

13 views 1 this week
no commentswrite comment
1 2 3 4 5
2 more votes to show rating
add to favorites
×
Save as Personal and add changes to this tab that will be seen only by you. Learn more ›
×
You can save this tab as Personal to edit and correct it or add notes. All changes will be seen only by you. Learn more »
launch autoscroll
font size
0
reset
how to read this tab
guitar tuner
edit
Autoscroll
slow
fast
+/-
esc
set tempo
stop
[Intro]
G#
e|-----------------|-----------------|
B|---4---4---4---4-|---4---4---4---4-|
G|-----------------|-----------------|
D|-----------------|-----------------|
A|-----------------|-----------------|
E|-4---4---4---4---|-4---4---4---4---|

[Verse 1]
  G#                                   G#/G
"Tell me we don't have to leave..."    "That we can always be..."
e|-----------------|-----------------|-----------------|-----------------|
B|---4---4---4---4-|---4---4---4---4-|---4---4---4---4-|---4---4---4---4-|
G|-----------------|-----------------|-----------------|-----------------|
D|-----------------|-----------------|-----------------|-----------------|
A|-----------------|-----------------|-----------------|-----------------|
E|-4---4---4---4---|-4---4---4---4---|-3---3---3---3---|-3---3---3---3---|

  C#                                  Fm                D#
             "Cause this moment..."   "...want"       "whoa"
e|-----------------|-----------------|-----------------|-----------------|
B|-----------------|-----------------|---1---1---1---1-|-----------------|
G|---6---6---6---6-|---6---6---6---6-|-----------------|---8---8---8---8-|
D|-----------------|-----------------|-----------------|-----------------|
A|-4---4---4---4---|-4---4---4---4---|-----------------|-6---6---6---6---|
E|-----------------|-----------------|-1---1---1---1---|-----------------|

  G#                                   G#/G
"Tell me how it used to be..."         "Cause baby you and me..."
e|-----------------|-----------------|-----------------|-----------------|
B|---4---4---4---4-|---4---4---4---4-|---4---4---4---4-|---4---4---4---4-|
G|-----------------|-----------------|-----------------|-----------------|
D|-----------------|-----------------|-----------------|-----------------|
A|-----------------|-----------------|-----------------|-----------------|
E|-4---4---4---4---|-4---4---4---4---|-3---3---3---3---|-3---3---3---3---|

  C#                                  Fm                D#
             "Where we're going..."   "...on"         "no"
e|-----------------|-----------------|-----------------|-----------------|
B|-----------------|-----------------|---1---1---1---1-|-----------------|
G|---6---6---6---6-|---6---6---6---6-|-----------------|---8---8---8---8-|
D|-----------------|-----------------|-----------------|-----------------|
A|-4---4---4---4---|-4---4---4---4---|-----------------|-6---6---6---6---|
E|-----------------|-----------------|-1---1---1---1---|-----------------|

[Pre-chorus]
     C#                                        D#
"Let my eyes be..."                   "...here"
   e|-----------------|-----------------|-----------------|-----------------|
   B|-----------------|-----------------|-----------------|-----------------|
   G|---6---6---6---6-|---6---6---6---6-|-8---------------|-----------------|
   D|-----------------|-----------------|-8---------------|-----------------|
   A|-4---4---4---4---|-4---4---4---4---|-6---------------|-----------------|
   E|-----------------|-----------------|-----------------|-----------------|

[Chorus]
Fm                  D#                G#                C#
"Standing..."   "...world"         "...air"          "...alive"
e|-----------------|-----------------|-----------------|-----------------|
B|-----------------|-----------------|-----------------|-----------------|
G|-----------------|-8---------------|-----------------|-6---------------|
D|-3---------------|-8---------------|-6---------------|-6---------------|
A|-3---------------|-6---------------|-6---------------|-4---------------|
E|-1---------------|-----------------|-4---------------|-----------------|

Fm                  D#                G#                C#
"Screaming..."   "...lungs"        "...heart"        "...tonight.   We go..."
e|-----------------|-----------------|-----------------|-----------------|
B|-----------------|-----------------|-----------------|-----------------|
G|-----------------|-8---------------|-----------------|-6---------------|
D|-3---------------|-8---------------|-6---------------|-6---------------|
A|-3---------------|-6---------------|-6---------------|-4---------------|
E|-1---------------|-----------------|-4---------------|-----------------|

Fm                  D#                G#                C#
"Oooh..."           "Oooh..."         "Standing..."  "...world.    We go..."
e|-----------------|-----------------|-----------------|-----------------|
B|-----------------|-----------------|-----------------|-----------------|
G|-----------------|-8---------------|-----------------|-6---------------|
D|-3---------------|-8---------------|-6---------------|-6---------------|
A|-3---------------|-6---------------|-6---------------|-4---------------|
E|-1---------------|-----------------|-4---------------|-----------------|

Fm                  D#                G#                C#
"Oooh..."           "Oooh..."         "Standing..."  "...world. Top of the..."
e|-----------------|-----------------|-----------------|-----------------|
B|-----------------|-----------------|-----------------|-----------------|
G|-----------------|-8---------------|-----------------|-6---------------|
D|-3---------------|-8---------------|-6---------------|-6---------------|
A|-3---------------|-6---------------|-6---------------|-4---------------|
E|-1---------------|-----------------|-4---------------|-----------------|

G#
"World."
e|-----------------|-----------------|
B|---4---4---4---4-|---4---4---4---4-|
G|-----------------|-----------------|
D|-----------------|-----------------|
A|-----------------|-----------------|
E|-4---4---4---4---|-4---4---4---4---|

[Verse 2]
  G#                                   G#/G
"So this is what it feels like..."     "Say bye to black and white..."
e|-----------------|-----------------|-----------------|-----------------|
B|---4---4---4---4-|---4---4---4---4-|---4---4---4---4-|---4---4---4---4-|
G|-----------------|-----------------|-----------------|-----------------|
D|-----------------|-----------------|-----------------|-----------------|
A|-----------------|-----------------|-----------------|-----------------|
E|-4---4---4---4---|-4---4---4---4---|-3---3---3---3---|-3---3---3---3---|

  C#                                  Fm                D#
             "Now I see..."           "...back"        "no"
e|-----------------|-----------------|-----------------|-----------------|
B|-----------------|-----------------|---1---1---1---1-|-----------------|
G|---6---6---6---6-|---6---6---6---6-|-----------------|---8---8---8---8-|
D|-----------------|-----------------|-----------------|-----------------|
A|-4---4---4---4---|-4---4---4---4---|-----------------|-6---6---6---6---|
E|-----------------|-----------------|-1---1---1---1---|-----------------|

  G#                                   G#/G
"Finally I understand..."             "And when I got your hand..."
e|-----------------|-----------------|-----------------|-----------------|
B|---4---4---4---4-|---4---4---4---4-|---4---4---4---4-|---4---4---4---4-|
G|-----------------|-----------------|-----------------|-----------------|
D|-----------------|-----------------|-----------------|-----------------|
A|-----------------|-----------------|-----------------|-----------------|
E|-4---4---4---4---|-4---4---4---4---|-3---3---3---3---|-3---3---3---3---|

  C#                                  Fm                D#
             "All I need..."           "...have"        "oh"
e|-----------------|-----------------|-----------------|-----------------|
B|-----------------|-----------------|---1---1---1---1-|-----------------|
G|---6---6---6---6-|---6---6---6---6-|-----------------|---8---8---8---8-|
D|-----------------|-----------------|-----------------|-----------------|
A|-4---4---4---4---|-4---4---4---4---|-----------------|-6---6---6---6---|
E|-----------------|-----------------|-1---1---1---1---|-----------------|

[Pre-chorus]
     C#                                        D#
 "Your eyes are..."                "...here, here, here, oooh"
e|-----------------|-----------------|-----------------|-----------------|
B|-----------------|-----------------|-----------------|-----------------|
G|---6---6---6---6-|---6---6---6---6-|-8---------------|-----------------|
D|-----------------|-----------------|-8---------------|-----------------|
A|-4---4---4---4---|-4---4---4---4---|-6---------------|-----------------|
E|-----------------|-----------------|-----------------|-----------------|

[Chorus]
Fm                  D#                G#                C#
"Standing..."   "...world"         "...air"          "...alive"
e|-----------------|-----------------|-----------------|-----------------|
B|-----------------|-----------------|-----------------|-----------------|
G|-----------------|-8---------------|-----------------|-6---------------|
D|-3---------------|-8---------------|-6---------------|-6---------------|
A|-3---------------|-6---------------|-6---------------|-4---------------|
E|-1---------------|-----------------|-4---------------|-----------------|

Fm                  D#                G#                C#
"Screaming..."   "...lungs"        "...heart"        "...tonight.   We go..."
e|-----------------|-----------------|-----------------|-----------------|
B|-----------------|-----------------|-----------------|-----------------|
G|-----------------|-8---------------|-----------------|-6---------------|
D|-3---------------|-8---------------|-6---------------|-6---------------|
A|-3---------------|-6---------------|-6---------------|-4---------------|
E|-1---------------|-----------------|-4---------------|-----------------|

Fm                  D#                G#                C#
"Oooh..."           "Oooh..."         "Standing..."  "...world.    We go..."
e|-----------------|-----------------|-----------------|-----------------|
B|-----------------|-----------------|-----------------|-----------------|
G|-----------------|-8---------------|-----------------|-6---------------|
D|-3---------------|-8---------------|-6---------------|-6---------------|
A|-3---------------|-6---------------|-6---------------|-4---------------|
E|-1---------------|-----------------|-4---------------|-----------------|

Fm                  D#                G#                C#
"Oooh..."           "Oooh..."         "Standing..."  "...world. Top of the..."
e|-----------------|-----------------|-----------------|-----------------|
B|-----------------|-----------------|-----------------|-----------------|
G|-----------------|-8---------------|-----------------|-6---------------|
D|-3---------------|-8---------------|-6---------------|-6---------------|
A|-3---------------|-6---------------|-6---------------|-4---------------|
E|-1---------------|-----------------|-4---------------|-----------------|

Bbm
"World."
e|-----------------|
B|-----------------|
G|-3---------------|
D|-3---------------|
A|-1---------------|
E|-----------------|

[Bridge]
           D#                G#
"And from way..."       "...problems seem so  small"
        e|-----------------|-----------------|------------------|
        B|-----------------|-----------------|------------------|
        G|-8---------------|---------8-------|6-----------------|
        D|-8---------------|-6-------8-------|6-----------------|
        A|-6---------------|-6-------6-------|4-----------------|
        E|-----------------|-4---------------|------------------|


Bbm                 D#                 C                Fm      
            "So baby have..."     "...fly above it      all."
e|-----------------|-----------------|-----------------|-----------------|
B|-----------------|-----------------|-----------------|-----------------|
G|-3---------------|-8---------------|-5---------------|---------8-------|
D|-3---------------|-8---------------|-5---------------|-3-------8-------|
A|-1---------------|-6---------------|-3---------------|-3-------6-------|
E|-----------------|-----------------|-----------------|-1---------------|

   C#

e|-----------------|-----------------|
B|-----------------|-----------------|
G|-6---------------|-----------------|
D|-6---------------|-----------------|
A|-4---------------|-----------------|
E|-----------------|-----------------|

[Chorus]
nc                                    G#                C#
"Standing..."   "...world"         "...air"          "...alive"
e|-----------------|-----------------|-----------------|-----------------|
B|-----------------|-----------------|-----------------|-----------------|
G|-----------------|-----------------|-----------------|-6---------------|
D|-----------------|-----------------|-6---------------|-6---------------|
A|-----------------|-----------------|-6---------------|-4---------------|
E|-----------------|-----------------|-4---------------|-----------------|

Fm                  D#                G#                C#
"Screaming..."   "...lungs"        "...heart"        "...tonight.   We go..."
e|-----------------|-----------------|-----------------|-----------------|
B|-----------------|-----------------|-----------------|-----------------|
G|-----------------|-8---------------|-----------------|-6---------------|
D|-3---------------|-8---------------|-6---------------|-6---------------|
A|-3---------------|-6---------------|-6---------------|-4---------------|
E|-1---------------|-----------------|-4---------------|-----------------|

Fm                  D#                G#                C#
"Oooh..."           "Oooh..."         "Standing..."  "...world.    We go..."
e|-----------------|-----------------|-----------------|-----------------|
B|-----------------|-----------------|-----------------|-----------------|
G|-----------------|-8---------------|-----------------|-6---------------|
D|-3---------------|-8---------------|-6---------------|-6---------------|
A|-3---------------|-6---------------|-6---------------|-4---------------|
E|-1---------------|-----------------|-4---------------|-----------------|

Fm                  D#                G#                C#
"Oooh..."           "Oooh..."         "Standing..."  "...world. Top of the..."
e|-----------------|-----------------|-----------------|-----------------|
B|-----------------|-----------------|-----------------|-----------------|
G|-----------------|-8---------------|-----------------|-6---------------|
D|-3---------------|-8---------------|-6---------------|-6---------------|
A|-3---------------|-6---------------|-6---------------|-4---------------|
E|-1---------------|-----------------|-4---------------|-----------------|

Fm                  D#                G#                C#
"world. Oooh..."    "Oooh..."         "Standing..."  "...world."
e|-----------------|-----------------|-----------------|-----------------|
B|-----------------|-----------------|-----------------|-----------------|
G|-----------------|-8---------------|-----------------|-6---------------|
D|-3---------------|-8---------------|-6---------------|-6---------------|
A|-3---------------|-6---------------|-6---------------|-4---------------|
E|-1---------------|-----------------|-4---------------|-----------------|

Fm                  D#                G#                C#
"Oooh..."           "Oooh..."         "Standing..."  "...world. Top of the..."
e|-----------------|-----------------|-----------------|-----------------|
B|-----------------|-----------------|-----------------|-----------------|
G|-----------------|-8---------------|-----------------|-6---------------|
D|-3---------------|-8---------------|-6---------------|-6---------------|
A|-3---------------|-6---------------|-6---------------|-4---------------|
E|-1---------------|-----------------|-4---------------|-----------------|

G#
"World."
e|-----------------|-----------------|
B|---4---4---4---4-|---4---4---4---4-|
G|-----------------|-----------------|
D|-----------------|-----------------|
A|-----------------|-----------------|
E|-4---4---4---4---|-4---4---4---4---|
Suggest correction
Creating personal tab
Creating personal tab
You can edit any tab online and save it as your Personal.

You can edit, replace or remove any tab part or add personal notes – all changes will be seen only by you.

Personal tabs can be accessed anytime from any device, even offline.
Learn more »
Give kudos to tab author, rate the tab!
1 2 3 4 5
comments
print report bad tab
guest
You may want to rate the tab now too:
select rating
Wanna post a correction for this tab? Suggest correction