Oops, an error
Loading. Please wait.

Hank Williams Tune tab

102 views 6 this week
2 commentsread comments
1 2 3 4 5
2 more votes to show rating
add to favorites
×
Save as Personal and add changes to this tab that will be seen only by you. Learn more ›
×
You can save this tab as Personal to edit and correct it or add notes. All changes will be seen only by you. Learn more »
launch autoscroll
font size
0
reset
how to read this tab
guitar tuner
edit
Autoscroll
slow
fast
+/-
esc
set tempo
stop
-------------------------------------------------------------------------------
               HANK WILLIAMS TUNE - Anthony D'Amato
-------------------------------------------------------------------------------
Tabbed by: A.C. Mo
E-mail: andreacmorris@msn.com

Cool song by a lesser known player - hope this gets more people into him. Certainly may not be perfect, but it
should get you going and it's been good enough for me. 

Thanks all!

Tuning: Standard

Capo 5


Intro:
e|-----------------------------------|---------------------------|
B|----5----------3-----------3-------|---0---------3-------1-----|
G|---------0------------0---------0--|-------0----------0-------0|
D|----5------5--------3--------3-----|---0-----0------0-------0--|
A|3--------------0---------0---------|-------------3-------3-----|
E|-----------------------------------|3--------------------------|

e|-----------------------------------|---------------------------|
B|----5----------3-----------3-------|---0---------1-------3-----|
G|---------0------------0---------0--|-------0----------0-------0|
D|----5------5--------3--------3-----|---0-----0------0-------0--|
A|3--------------0---------0---------|---------------------------|
E|-----------------------------------|3------------3-------3-----|

e|-----------------------------------|---------------------------|
B|----5----------3-----------3-------|---0---------3-------1-----|
G|---------0------------0---------0--|-------0----------0-------0|
D|----5------5--------3--------3-----|---0-----0------0-------0--|
A|3--------------0---------0---------|-------------3-------3-----|
E|-----------------------------------|3--------------------------|

e|---------------------------|--------------------------|
B|----1-------------1--------|--1--------------1--------|
G|---------2------------2----|------0-------------0-----|
D|----2------2------3-----3--|--2-----2h3p2----2-----2--|
A|0--------------3-----------|3-------------3-----------|
E|---------------------------|--------------------------|
Verse:

       (Let me)  crawl...                cracks
e|-----------------------------------|---------------------------|
B|----5----------3-----------3-------|---0---------3-------1-----|
G|---------0------------3---------3--|-------0----------0-------0|
D|----5------5--------0--------0-----|---0-----0------0-------0--|
A|3--------------0---------0---------|-------------3-------3-----|
E|-----------------------------------|3--------------------------|

      I'll be...                        moon
e|-----------------------------------|---------------------------|
B|----5----------3-----------3-------|---0---------1-------3-----|
G|---------0------------3---------3--|-------0----------0-------0|
D|----5------5--------0--------0-----|---0-----0------0-------0--|
A|3--------------0---------0---------|-------------2-------2-----|
E|-----------------------------------|3--------------------------|

        (Let me) die...               back of your Camero,
e|-----------------------------------|---------------------------|
B|----5----------3-----------3-------|---0---------3-------1-----|
G|---------0------------3---------3--|-------0----------0-------0|
D|----5------5--------0--------0-----|---0-----0------0-------0--|
A|3--------------0---------0---------|-------------3-------3-----|
E|-----------------------------------|3--------------------------|
  
      and I'll...Hank ...       tune
e|---------------------------|--------------------------|
B|----1-------------1--------|--1--------------1--------|
G|---------2------------2----|------0-------------0-----|
D|----2------2------3-----3--|--2-----2h3p2----2-----2--|
A|0--------------3-----------|3-------------3-----------|
E|---------------------------|--------------------------|

Repeat for:
                            Lay me down, Sister of Mercy,
                            You've such a hard heart of stone
                            Let me slip my hands into your pockets,
                            And I'll be your Leonard Cohen poem

Chorus:

     Once...  while           please...  smile
e|------------------------|-----------------------------|
B|---0-----------0--------|---1--------------1----------|
G|------0-----------0-----|-------2---------------2-----|
D|---0-----0-----0-----0--|---2------2-------3-------3--|
A|------------------------|0-------------3--------------|
E|3-----------4-----------|-----------------------------|


 And show...               miles
e|------------------------|-----------------------------|
B|---1------------0-------|---1----------3-----1--------|
G|-------0------------0---|-------2--------------2---2--|
D|---2-----2------0-----0-|---2------2-------2-----2----|
A|3-----------2-----------|0-------------0--------------|
E|------------------------|-----------------------------|

And I'll hum...               thinking
e|------------------------|-----------------------------|
B|---0-----------0--------|---1--------------1----------|
G|------0-----------0-----|-------2---------------2-----|
D|---0-----0-----0-----0--|---2------2-------3-------3--|
A|------------------------|0-------------3--------------|
E|3-----------4-----------|-----------------------------|

The radio....    dead...      dial 
e|---------------------------|--------------------------|
B|----1-------------0--------|--1--------------1--------|
G|---------0------------0----|------0-------------0-----|
D|----2------2------0-----0--|--2-----2h3p2----2-----2--|
A|3--------------2-----------|3-------------3-----------|
E|---------------------------|--------------------------|

Verse for:
                              Just for tonight let me hide in your apartment,
                              I need a quiet place to sleep
                              String me up anyway you'd like to 
                              And I'll be your Ballad in Plain D
And again for:
                              We'll go down to your coastal waters
                              Lie in that Dixie sun
                              Let me wash up on your shoreline
                              And I'll be your Dharma Bums

Chorus:

                              Now and then, the winter wind
                              Whips up from the West and dies again
                              And I'll hum this tune when I'm thinking of you
                              And how I let you get under my skin

Bridge:

                 All my...
e|-------------------------------|-------------------------------|
B|----1-------------------1------|--0-----------3----------3-----|
G|---------2----------2--------2-|------0-------------0---------0|
D|----3------3------3-------3----|--0------0-------0---------0---|
A|3--------------3------3--------|-------------------------------|
E|-------------------------------|3-------------3--------3-------|

  Red doors...             black.
e|------------------------|-----------------------------|
B|---1------------0-------|---1----------3-----1--------|
G|-------0------------0---|-------2--------------2---2--|
D|---2-----2------0-----0-|---2------2-------2-----2----|
A|3-----------2-----------|0-------------0--------------|
E|------------------------|-----------------------------|

              And wild horses...                           couldn't
e|-------------------------------|-------------------------------|
B|----1-------------------1------|--0-----------3----------3-----|
G|---------2----------2--------2-|------0-------------0---------0|
D|----3------3------3-------3----|--0------0-------0---------0---|
A|3--------------3------3--------|-------------------------------|
E|-------------------------------|3-------------3--------3-------|


  Make me...               back.  
e|------------------------|-----------------------------|
B|---1------------0-------|---1----------3-----1--------|
G|-------0------------0---|-------2--------------2---2--|
D|---2-----2------0-----0-|---2------2-------2-----2----|
A|3-----------2-----------|0-------------0--------------|
E|------------------------|-----------------------------|

                It's all been said.
e|-------------------------------|--------------------------------|
B|----1-------------------1------|--0-------------3---------------|
G|---------2----------2--------2-|------0-----0---------0---------|
D|----3------3------3-------3----|--0------0---------0------------|
A|3--------------3------3--------|----------------------------2/3-|
E|-------------------------------|3---------------3--------3------|


And Verse again for:

                             You were shy when I barely knew you,
                             We shared that lilac wine.
                             I was drunk when I called you "Hallelujah",
                             But I'll be you last goodbye

    Oh, I'll be your last goodbye
e|---------------------------|--------------------------|
B|----1-------------1--------|--1--------------1--------|
G|---------2------------2----|------0-------------0-----|
D|----2------2------3-----3--|--2-----2h3p2----2-----2--|
A|0--------------3-----------|3-------------3-----------|
E|---------------------------|--------------------------|

    Yeah, I'll be your last goodbye
e|---------------------------|-----------------------0-|
B|----1-------------1--------|----1------------------1-|
G|---------2------------2----|--------0----0---------0-|
D|----2------2------3-----3--|--2--------3----2------2-|
A|0--------------3-----------|3-----3------------3-----|
E|---------------------------|-------------------------|




************************************

| /   slide up
| \   slide down
| h   hammer-on
| p   pull-off
| ~   vibrato
| +   harmonic
| x   Mute note
| b   Bend
| pb  Pre-bend
| br  Bend release
| pbr Pre-bend release
| brb Bend release bend

************************************

            
            
Suggest correction
Creating personal tab
Creating personal tab
You can edit any tab online and save it as your Personal.

You can edit, replace or remove any tab part or add personal notes – all changes will be seen only by you.

Personal tabs can be accessed anytime from any device, even offline.
Learn more »
Give kudos to tab author, rate the tab!
1 2 3 4 5
comments
print report bad tab
2 comments total.
0 reply
arcticdaughter 47 Jun 02, 2017 04:22 PM

Lovely tab, thanks! I was going to learn from the video and I was stoked to see this, so much faster. Thanks so much!

0 reply
A.C.Mo 56 Jun 18, 2017 11:34 PM

Glad you liked it! Thanks!

guest
You may want to rate the tab now too:
select rating
Wanna post a correction for this tab? Suggest correction