Oops, an error
Loading. Please wait.

Cheating Man Tab

2,893 views 1 this week
no commentswrite comment
1 2 3 4 5
please rate
add to favorites
launch autoscroll
font size
0
reset
how to read this tab
guitar tuner
Autoscroll
slow
fast
+/-
esc
set tempo
stop
Help us to improve Ultimate-Guitar.com Take our survey!
×
Difficulty
novice
-----------------------Cheating Man - Anthony David-------------------------
www.anthonydavidmusic.com

this is my first tab. it's a very simple song, but the lyrics hit very close to home, so 
figured this would be the best song for me to start tabbing. hope you enjoy :)

repeat 3x
e |------------------------------------------------------------------------|
B |---------8--------------------------------------------------------------|
G |------------9----------11-----------------9------------8----------------|
D |------9---------------------12---------------10-----------9-------------|
A |---7-----------------12---------------10------------9-------------------|
E |-----------------10----------------8--------------7---------------------|


e|------------5-----5--------------7----7----------------------------------|
B|----------5---5----------------7---7-------------------------------------|
G|--------6-------6------------8-------8-----------------------------------|
D|------7--------------------9---------------------------------------------|
A|----7--------------------9-----------------------------------------------|
E|--5--------------------7-------------------------------------------------|

the part above you have to slide that chord to the next .. if you listen to the song 
really easy to figure out.

honey i'm a good man
but i'm a cheating man
and i do all i can to get a ladies love
and i want to do right
i don't wanna hurt nobody
if i slip then i'm sorry
yes i am

when i was a young boy
i used to watch my daddy play
and in my heart i'd always say
it was wrong
he had to be crazy
knocked stone cold out of his mind
to be leaving my pretty momma
home alone
she'd always sit patient
and waiting and cussin and cryin
and who have to be there to comfort her
i would have to look my momma
right square in her eyes
and i'd swear that i
would never heart no one like that

baby i'm a good man
but i'm a cheating man
and i do all i can to get a ladies love
and i want to do right
i don't wanna hurt nobody
if i slip then i'm sorry
yes i am

now that i'm older
i find it's time to settle down
cause i need some love around
to make me whole
but something is funny
cause things i swore i'd never do
i find myself falling a victim to
loosing total control
oh yeah cause recently
i ran into some one who reminds me of you and
even though i know that kinda thing aint right
i'm finding myself caught up in lies
trying to swim against the tide
and as the stage get set for drama
i can't stop thinkin about my mama

oh oh

repeat chorus

this was tabbed by I-N-V-NO-1 AKA Darvis
Suggest correction new What's this?
You can suggest a correction to this tab. Community and Mods will review your correction and vote to approve or reject it.
comments
We did not receive enough feedback on this tab! Please rate:
print report bad tab
1 2 3 4 5
guest
You may want to rate the tab now too:
select rating
Please do not post tabs as comments. Select "correction" instead!