Oops, an error
Loading. Please wait.

Lullaby tab

version 3
version 3

Whole song

  • Octave is lower than the original, but if played i... Show more
40 views 1 this week
no commentswrite comment
1 2 3 4 5
3 more votes to show rating
add to favorites
×
Save as Personal and add changes to this tab that will be seen only by you. Learn more ›
×
You can save this tab as Personal to edit and correct it or add notes. All changes will be seen only by you. Learn more »
launch autoscroll
font size
0
reset
how to read this tab
guitar tuner
edit
Autoscroll
slow
fast
+/-
esc
set tempo
stop
Author
Difficulty
About this tab version
Octave is lower than the original, but if played in standard tuning with no capo, the pitch is right on the original. Some notes that are played in the original may not be included in this tab, as I've structured it more for a solo acoustic guitar. Was this info helpful? Yes No
Artist: Anthony Green
Song: Lullaby
Album: Beautiful Things
Tabbed by: Derek Kirby

==============================================================================================================

Beautiful little acoustic song by Anthony Green. If played along side Nicole's tab, if a second guitar is an 
option, it sounds very similar to the original song. If you have difficulties figuring out the rhythm I would
recommend listening and playing, as some of the notes are timed oddly. I tried to make the lyrics fit with the
tab, but some areas may be off due to lack of space between words. I tried to correct this by using two lines 
for lyrics, but it's still sort of iffy.

==============================================================================================================

Intro: The introduction mirrors the verse and instrumental parts of the song, other than minor variations.

e|----------------------------------------------------------------------------------------------|
B|-----3-----0-----------3-----0-----------0-----1-----0-----------0----------------------------|
G|-----------------0-----------------0-----------------------2-----------2----------------------|
D|-------------------0------------------0-------------------------------------------------------|
A|----------------------------------------------------------------------------------------------|
E|-----3-----------------3-----------------3-----------------3----------------------------------|

e|----------------------------------------------------------------------------------------------|
B|-----3-----0-----------3-----0-----------0-----1-----0----------------------------------------|
G|-----------------0-----------------0-----------------------2----------------------------------|
D|-------------------0------------------0--------------------------0----------------------------|
A|----------------------------------------------------------------------------------------------|
E|-----3-----------------3-----------------3-----------------3----------------------------------|



[Verse 1]

e|----------------------------------------------------------------------------------------------|
B|-----3-----0-----------3-----0-----------0-----1-----0-----------0----------------------------|
G|-----------------0-----------------0-----------------------2-----------2----------------------|
D|-------------------0------------------0-------------------------------------------------------|
A|----------------------------------------------------------------------------------------------|
E|-----3-----------------3-----------------3-----------------3----------------------------------|
-      Just  rest        your  eyes,       if    they're           hea   vy. 
                                                       get   ting
e|----------------------------------------------------------------------------------------------|
B|-----3-----0-----------3-----0-----------0-----1-----0----------------------------------------|
G|-----------------0-----------------0-----------------------2-----2----------------------------|
D|-------------------0------------------0-----------------------------0-------------------------|
A|----------------------------------------------------------------------------------------------|
E|-----3-----------------3-----------------3-----------------3----------------------------------|
-      Rest  your,       head  on,         my    pi    -i    -i    llow. 
 
e|----------------------------------------------------------------------------------------------|
B|-----3-----0-----------3-----0-----------0-----1-----0-----------0----------------------------|
G|-----------------0-----------------0-----------------------2-----------2----------------------|
D|-------------------0------------------0-------------------------------------------------------|
A|----------------------------------------------------------------------------------------------|
E|-----3-----------------3-----------------3-----------------3----------------------------------|
-      If    you,        want, I,                keep  sin   ging  soft  ly. 
                                             could

e|-----------------------------------------------0-----2-----3-----2-----0----------------------|
B|-----3-----0-----------3-----1-----0-----------------------------------------3----------------|
G|-----------------0-----------------------2----------------------------------------------------|
D|-------------------0--------------------------------------------------------------------------|
A|----------------------------------------------------------------------------------------------|
E|-----3-----------------3-----------------------3-----------------3----------------------------|
-      Or    you         could try,              co    un    ting  sheep. 



Chorus 1: I personally play the bass note along with the rhythm during the chorus, but it's personal 
preference. If played with every other note or played similarly to the rest of the song sounds fine as well.
The e2 and B3 (as noted below the ^) are optional, but adding them makes it sound more like the original song.
The final chord (3XXX3X, noted below the *)is a transition into the instrumental that follows the chorus. In
other words, the chord that the chorus ends on is the same exact chord that begins the instrumental.
                                       ^                                   ^
e|-----3-----3-----2-----0-------------2---3-----3-----5-----0-------------2--------------------|
B|----------------------------------------------------------------------------------------------|
G|----------------------------------------------------------------------------------------------|
D|----------------------------------------------------------------------------------------------|
A|----------------------------------------------------------------------------------------------|
E|-----3-----3-----3-----3-----3-----3-----3-----3-----3-----3-----3-----3----------------------|
-      Beau  ti    ful   things,           Beau  ti    ful   things,  
                                       ^                                          
e|-----3-----3-----2-----0-----------------0-----2-----3-----2-----0----------------------------|
B|-------------------------------------3---------------------------------3----------------------|
G|----------------------------------------------------------------------------------------------|
D|----------------------------------------------------------------------------------------------|
A|----------------------------------------------------------------------------------------------|
E|-----3-----3-----3-----3-----3-----3-----3-----3-----3-----3-----3-----3----------------------|
-      Beau  ti    ful   things      are   co                ming
                                       ^                                   ^
e|-----3-----3-----2-----0-------------2---3-----3-----5-----0-------------2--------------------|
B|----------------------------------------------------------------------------------------------|
G|----------------------------------------------------------------------------------------------|
D|----------------------------------------------------------------------------------------------|
A|----------------------------------------------------------------------------------------------|
E|-----3-----3-----3-----3-----3-----3-----3-----3-----3-----3-----3-----3----------------------|
-      Beau  ti    ful   things,           Beau  ti    ful   things,  
                                       ^                                 *
e|-----3-----3-----2-----0-----------------0-----2-----3-----2-----0----------------------------|
B|-------------------------------------3---------------------------------3----------------------|
G|----------------------------------------------------------------------------------------------|
D|----------------------------------------------------------------------------------------------|
A|----------------------------------------------------------------------------------------------|
E|-----3-----3-----3-----3-----3-----3-----3-----3-----3-----3-----3-----3----------------------|
-      Beau  ti    ful   things      are   co                ming        to you


 
[Instrumental]

e|----------------------------------------------------------------------------------------------|
B|-----3-----0-----------3-----0-----------0-----1-----0-----------0----------------------------|
G|-----------------0-----------------0-----------------------2-----------2----------------------|
D|-------------------0------------------0-------------------------------------------------------|
A|----------------------------------------------------------------------------------------------|
E|-----3-----------------3-----------------3-----------------3----------------------------------|
      (to you)

e|----------------------------------------------------------------------------------------------|
B|-----3-----0-----------3-----0-----------0-----1-----0----------------------------------------|
G|-----------------0-----------------0-----------------------2----------------------------------|
D|-------------------0------------------0--------------------------0----------------------------|
A|----------------------------------------------------------------------------------------------|
E|-----3-----------------3-----------------3-----------------3----------------------------------|



[Verse 2]

E|----------------------------------------------------------------------------------------------|
B|-----3-----0-----------3-----0-----------0-----1-----0-----------0----------------------------|
G|-----------------0-----------------0-----------------------2-----------2----------------------|
D|-------------------0------------------0-------------------------------------------------------|
A|----------------------------------------------------------------------------------------------|
E|-----3-----------------3-----------------3-----------------3----------------------------------|
 -     Just  picture     the   sun,              and         it's  heat. 

E|----------------------------------------------------------------------------------------------|
B|-----3-----0-----------3-----0-----------0-----1-----0----------------------------------------|
G|-----------------0-----------------0-----------------------2-----2----------------------------|
D|-------------------0------------------0-----------------------------0-------------------------|
A|----------------------------------------------------------------------------------------------|
E|-----3-----------------3-----------------3-----------------3----------------------------------|
 -     Res   ting,       upon,             your  finger            tips. 
 
E|----------------------------------------------------------------------------------------------|
B|-----3-----0-----------3-----0-----------0-----1-----0-----------0----------------------------|
G|-----------------0-----------------0-----------------------2-----------2----------------------|
D|-------------------0------------------0-------------------------------------------------------|
A|----------------------------------------------------------------------------------------------|
E|-----3-----------------3-----------------3-----------------3----------------------------------|
 -     As    it    moves a     cross,      the   rest  of    your  body. 

E|-----------------------------------------------0-----2-----3-----2-----0----------------------|
B|-----3-----0-----------3-----1-----0-----------------------------------------3----------------|
G|-----------------0-----------------------2----------------------------------------------------|
D|-------------------0--------------------------------------------------------------------------|
A|----------------------------------------------------------------------------------------------|
E|-----3-----------------3-----------------------3-----------------3----------------------------|
 -     Re    lax         and   keep,       your  mi   -ind         at    ease  



Chorus 2: Same as Chorus 1. Optional notes and transitional chord are marked.
                                                                 
                                       ^                                   ^
e|-----3-----3-----2-----0-------------2---3-----3-----5-----0-------------2--------------------|
B|----------------------------------------------------------------------------------------------|
G|----------------------------------------------------------------------------------------------|
D|----------------------------------------------------------------------------------------------|
A|----------------------------------------------------------------------------------------------|
E|-----3-----3-----3-----3-----3-----3-----3-----3-----3-----3-----3-----3----------------------|
-      Beau  ti    ful   things,           Beau  ti    ful   things,  
                                       ^                                          
e|-----3-----3-----2-----0-----------------0-----2-----3-----2-----0----------------------------|
B|-------------------------------------3---------------------------------3----------------------|
G|----------------------------------------------------------------------------------------------|
D|----------------------------------------------------------------------------------------------|
A|----------------------------------------------------------------------------------------------|
E|-----3-----3-----3-----3-----3-----3-----3-----3-----3-----3-----3-----3----------------------|
-      Beau  ti    ful   things      are   co                ming
                                       ^                                   ^
e|-----3-----3-----2-----0-------------2---3-----3-----5-----0-------------2--------------------|
B|----------------------------------------------------------------------------------------------|
G|----------------------------------------------------------------------------------------------|
D|----------------------------------------------------------------------------------------------|
A|----------------------------------------------------------------------------------------------|
E|-----3-----3-----3-----3-----3-----3-----3-----3-----3-----3-----3-----3----------------------|
-      Beau  ti    ful   things,           Beau  ti    ful   things,  
                                       ^                                 *
e|-----3-----3-----2-----0-----------------0-----2-----3-----2-----0----------------------------|
B|-------------------------------------3---------------------------------3----------------------|
G|----------------------------------------------------------------------------------------------|
D|----------------------------------------------------------------------------------------------|
A|----------------------------------------------------------------------------------------------|
E|-----3-----3-----3-----3-----3-----3-----3-----3-----3-----3-----3-----3----------------------|
-      Beau  ti    ful   things      are   co                ming        to you



Instrumental outro: The last three notes and chord are played progressively slower, with the chord played at 
the end left to ring after strummed. When playing solo, I personally believe that just a simple 3200XX in 
place of 320002 sounds better, but again it's personal preference.

E|----------------------------------------------------------------------------------------------|
B|-----3-----0-----------3-----0-----------0-----1-----0-----------0----------------------------|
G|-----------------0-----------------0-----------------------2-----------2----------------------|
D|-------------------0------------------0-------------------------------------------------------|
A|----------------------------------------------------------------------------------------------|
E|-----3-----------------3-----------------3-----------------3----------------------------------|
      (to you) 

E|----------------------------------------------------------------(3)---------------------------|
B|-----3-----0-----------3-----1-----0----------------------------(0)---------------------------|
G|-----------------0-----------------------2-----2-----0-----------0----------------------------|
D|-------------------0---------------------------------------4-----0----------------------------|
A|-----------------------------------------------------------------2----------------------------|
E|-----3-----------------3-----------------3-----------------------3----------------------------|



************************************

| (n)  Ghost note

************************************
Suggest correction
Creating personal tab
Creating personal tab
You can edit any tab online and save it as your Personal.

You can edit, replace or remove any tab part or add personal notes – all changes will be seen only by you.

Personal tabs can be accessed anytime from any device, even offline.
Learn more »
Give kudos to tab author, rate the tab!
1 2 3 4 5
comments
print report bad tab
guest
You may want to rate the tab now too:
select rating
Wanna post a correction for this tab? Suggest correction