Oops, an error
Loading. Please wait.

Charlene chords

version 4
version 4

Whole song

376 views 9 this week
1 commentread comment
1 2 3 4 5
x 3
add to favorites
×
Save as Personal and add changes to this tab that will be seen only by you. Learn more ›
×
You can save this tab as Personal to edit and correct it or add notes. All changes will be seen only by you. Learn more »
launch autoscroll
font size
0
reset
transpose
0
reset
simplify chords
display chords
guitar tuner
edit
Autoscroll
slow
fast
+/-
esc
set tempo
stop
Strumming
There is no strumming pattern for this song yet. and get +5 IQ
[Intro]

    Am7   Em7       Dm7
e|-------------------1---------------------------|
B|--0h1----3---0h3---1-----------1--1h3--p1------|
G|---0-----0----0----2------0-h2-----------------|
D|---2-----2---------0----0----------------------|
A|---0-----2-------------------------------------|
E|-----------------------------------------------|

    Am7   Em7       Dm7
e|-------------------1---------------------------|
B|--0h1----3---0h3---1-----------1--h3-----------|
G|---0-----0----0----2------0-h2-----------------|
D|---2-----2---------0----0----------------------|
A|---0-----2-------------------------------------|
E|-----------------------------------------------|

    Am7   Em7       Dm7
e|-------------------1---------------------------|
B|--0h1----3---0h3---1---------------------------|
G|---0-----0----0----2------0h2--p0--------------|
D|---2-----2---------0----0----------------------|
A|---0-----2-------------------------------------|
E|-----------------------------------------------|

     F    C4 Bm7 Am7 Am7/Bm7 Am7
e|---1-------------------------------------------|
B|---1-----5--3--1---1/3------1------------------|
G|---2-----5--2--0---0/2------0------------------|
D|---3-----3--4--2---2/4------2------------------|
A|---3-----3--2--0---0/2------0------------------|
E|---1-------------------------------------------|


[Verse I]

Am7                  Em7
Woke up this morning found a letter that she wrote
Dm7                       Dm7
She said she's tired that I'm always on the road
Am7                  Em7
To hard to swallow being alone
Dm7                       Dm7
She needs someone at night that she can hold

She must have told me a thousand times before
Dm7                     Dm7
Silent cries I use to ignore
Am7
God knows I love her
Em7                      Dm7
Didn't mean to hurt her, ooohh


[Chorus]

          Am7
Baby I'll be
Em7                     Dm7
Sitting here waiting on you to come home again
        Am7
I won't leave
Em7                  Dm7
Promise I'll be here to the very end
        Am7
By your side
Em7                                   Dm7
To protect you and to love you and to be with you for life
        F       C4 Bm7 Am7 Bm7 Am7 
Come on home to me         Charlene


[Verse II]

Am7                     Em7
She knows I really love this old music thang
Dm7                 Dm7
Since I was a child it's been my dream
Am7               Em7
I can support her treat her and spoil her
Dm7                  Dm7
You know buy her the finer things

Am7                Em7
But I forgot about loving her
Dm7             Dm7
Damn the money, diamonds and pearls
Am7                         Em7
What about the hard day she had with the baby
Dm7             Dm7
All she need is for me to love her


[Chorus]

          Am7
Baby I'll be
Em7                     Dm7
Sitting here waiting on you to come home again
        Am7
I won't leave
Em7                  Dm7
Promise I'll be here to the very end
        Am7
By your side
Em7                                   Dm7
To protect you and to love you and to be with you for life
        F       C4 Bm7 Am7 Bm7 Am7 
Come on home to me         Charlene


[Bridge]

      Am7
Ooooh
                                 A11
Promise I can't live without her
                            Am7
God knows I need her loving
                A11                      F
And it hurts so bad that's she gone away
  A11              Dm7
I pray that she'll come back one day
      F
In my life


[Chorus]

          Am7
Baby I'll be
Em7                     Dm7
Sitting here waiting on you to come home again
        Am7
I won't leave
Em7                  Dm7
Promise I'll be here to the very end
        Am7
By your side
Em7                                   Dm7
To protect you and to love you and to be with you for life
        F       C4 Bm7 Am7 Bm7 Am7 
Come on home to me         Charlene

      Am7  Em7
Oh oh oh
    Dm7          Am7
Sometimes I cry
Em7                     Dm7                       Am7
Charlene if you're listening would you call on me
           Em7             Dm7
Because my heart is aching

            
            
Suggest correction
Creating personal tab
Creating personal tab
You can edit any tab online and save it as your Personal.

You can edit, replace or remove any tab part or add personal notes – all changes will be seen only by you.

Personal tabs can be accessed anytime from any device, even offline.
Learn more »
Give kudos to tab author, rate the tab!
1 2 3 4 5
comments
print report bad tab
1 comment total.
0 reply
wegray044 36 Aug 05, 2016 12:25 PM

Chords are wrong. Wrong key. Original key is Eb major/ C minor. This isn't even close, close to a simplified cover.

guest
You may want to rate the tab now too:
select rating
Wanna post a correction for this tab? Suggest correction