Oops, an error
Loading. Please wait.

Which Way The Wind Blows tab

1,489 views 15 this week
2 commentsread comments
1 2 3 4 5
1 last vote to show rating
add to favorites
×
Save as Personal and add changes to this tab that will be seen only by you. Learn more ›
×
You can save this tab as Personal to edit and correct it or add notes. All changes will be seen only by you. Learn more »
launch autoscroll
font size
0
reset
how to read this tab
guitar tuner
edit
Autoscroll
slow
fast
+/-
esc
set tempo
stop
Anthony Phillips - Which Way The Wind Blows

I got most of the fingerings from Brett Kull's Cover

The few lyrics are for a starting point, they don't determine the pace

These are just the fingerings of the chords used. Listen to the song to get the 
right strumming patterns but it's not that hard.

Standard Tuning
Capo 3rd fret


|4--2--0--0---x--7--5--4-0-5--4--0-7|
|5--0--0--0---15-7--5--5-5-5--5--5-5|
|6--1--2--1---9--9--6--6-6-6--6--6-6|
|7--2--4--2---11-6--4--4-4-4--4--4-4|
|0--2--4--2---12-6--4--4-4-4--4--4-4|
|0--0--0--0---0--0--0--0-0-0--0--0-0|

"Look.."        
|0---0-0-0--0----0---0-0-0--0|
|0---0-0-0--2----0---0-0-0--2|
|1---2-2-1--2----1---2-2-1--2|
|2---2-2-2--2----2---2-2-2--2|
|2---2-2-2--0----2---2-2-2--0|
|0---0-0-0--0----0---0-0-0--0|

"You.."          "All.."         "don't know..."
|0---0---0---0---0---0---0---0---0---0---0---0|
|0---0---0---0---0---0---0---0---3---3---3---3|
|2---4---2---4---5---4---5---4---0---0---0---0|
|4---6---4---6---5---4---5---4---4---2---4---2|
|4---6---4---6---0---0---0---0---2---2---2---2|
|0---0---0---0---0---0---0---0---0---0---0---0|

"Look.."
|0---0-0-0--0----0---0-0-0--0|
|0---0-0-0--2----0---0-0-0--2|
|1---2-2-1--2----1---2-2-1--2|
|2---2-2-2--2----2---2-2-2--2|
|2---2-2-2--0----2---2-2-2--0|
|0---0-0-0--0----0---0-0-0--0|

"Home..""Come..""All.."         "don't know.."
|0---0---0---0---0---0---0---0---0---0-3-2-0---------0--0------0-5-7|
|0---0---0---0---0---0---0---0---3---3--------3-1-0--3--3-----0-----|
|2---4---2---4---5---4---5---4---0---0-------------2-0--0----2------|
|4---6---4---6---5---4---5---4---4---2---------------4--2---2-------|
|4---6---4---6---0---0---0---0---2---2---------------2--2--2--------|
|0---0---0---0---0---0---0---0---0---0---------------0--0-----------|

Strum the slide
"I sit.."    "Watching.."
|0-0-0/0/0-0--0-0/0/0/0|
|0-0-0/0/0-0--0-0/0/0/0|
|1-1-1/2/4-4--2-2/4/6/4| X2
|2-2-2/4/6-6--4-4/6/7/6|
|2-2-2/4/6-6--4-4/6/7/6|
|0-0-0/0/0-0--0-0/0/0/0|

"I think.""Peace.."  "Only.."
|0-0-0/0/0-4--0--4--0--0/0/0-0/0-0-0|
|0-0-0/0/0-5--4--5--0--0/0/0-0/0-0-0|
|1-1-1/2/4-6--4--6--4--1/2/4-4/2-2-2|
|2-2-2/4/6-7--4--6--6--2/4/6-6/4-4-4|
|2-2-2/4/6-0--0--0--6--2/4/6-6/4-3-2|
|0-0-0/0/0-0--0--0--0--0/0/0-0/0-0-0|

|0---0-0-0--0----0---0-0-0--0|
|0---0-0-0--2----0---0-0-0--2|
|1---2-2-1--2----1---2-2-1--2|
|2---2-2-2--2----2---2-2-2--2|
|2---2-2-2--0----2---2-2-2--0|
|0---0-0-0--0----0---0-0-0--0|
"You.." "Ah.." "Time.." "And.." "And..""Seems"
|0---0---0---0---5---4---5---4-(2)-0--0--0----0-2|
|0---0---0---0---0---5---0---5--4--0--0--5----0-0|
|2---4---2---4---4---6---4---6--4--4--4--6----0-0|
|4---6---4---6---0---6---0---6--4--6--6--6----2-2|
|4---6---4---6---2---0---2---0--0--6--5--4----3-3|
|0---0---0---0---0---0---0---0--0--0--0--0----0-0|

|0---0--0-0-0---0--0-0-0--0-3-2-0-------0-0-----0-5/7|
|0---0--0-0-0---0--0-0-3--3------3-1-0--3-3----0-----|
|5---4--4-4-5---4--4-4-0--0-----------2-0-0---2------|
|5---4--2-4-5---4--2-0-4--2-------------4-2--2-------|
|0---0--0-0-0---0--0-0-2--2-------------2-2-2--------|
|0---0--0-0-0---0--0-0-0--0-------------0-0----------|

Strum the slide
"I sit.."    "Watching.."
|0-0-0/0/0-0--0-0/0/0/0|
|0-0-0/0/0-0--0-0/0/0/0|
|1-1-1/2/4-4--2-2/4/6/4| X2
|2-2-2/4/6-6--4-4/6/7/6|
|2-2-2/4/6-6--4-4/6/7/6|
|0-0-0/0/0-0--0-0/0/0/0|

"I think..""Peace.."  "Only.."
|0-0-0/0/0-4--0--4--0--0/0/0-0/0-0\0--0--0|
|0-0-0/0/0-5--4--5--0--0/0/0-0/0-0\0--0--0|
|1-1-1/2/4-6--4--6--4--1/2/4-4/2-2\1--2--2|
|2-2-2/4/6-7--4--6--6--2/4/6-6/4-4\2--4--4|
|2-2-2/4/6-0--0--0--6--2/4/6-6/4-4\2--3--2|
|0-0-0/0/0-0--0--0--0--0/0/0-0/0-0\0--0--0|

|-----0-------0-------0---0--0---|
|----0-0-----0-0-----0-0---0--0--|
|---3---3---3---3---3---3---3--3-| fade out
|--4-----4-4-----4-4-----4-------|
|-4-------3-------2--------------|
|(0)-----(0)-----(0)-------------|

            
            
Suggest correction
Creating personal tab
Creating personal tab
You can edit any tab online and save it as your Personal.

You can edit, replace or remove any tab part or add personal notes – all changes will be seen only by you.

Personal tabs can be accessed anytime from any device, even offline.
Learn more »
Give kudos to tab author, rate the tab!
1 2 3 4 5
comments
print report bad tab
2 comments total.
-2 reply
synchery 222 Aug 06, 2013 10:12 AM

Capo 3rd fret

0 reply
grebmops 10 Sep 25, 2015 04:48 PM

Thanks so much for the tab. I've made a few changes to your introduction (I find it impossible to play). Here's how I do it:

|4--2--0--0---9--7--5--4-5--x-|
|5--0--0--0---9--7--5--0-5--5-|
|6--1--2--1---6--4--2--2-2--2-|
|7--2--4--2---7--5--4--4-4--4-|
|0--2--4--2---0--0--4--4-4--4-|
|0--0--0--0---0--0--0--0-0--0-|

guest
You may want to rate the tab now too:
select rating
Wanna post a correction for this tab? Suggest correction