Oops, an error
Loading. Please wait.

A Skeleton In The Closet Tab

version 1
version 1

Whole song

Interactive

4,381 views 3 this week
no commentswrite comment
1 2 3 4 5
please rate
add to favorites
launch autoscroll
font size
0
reset
how to read this tab
guitar tuner
Tab Pro tools
  • play this tab
  • loop segment
  • change instrument
  • show fretboard
  • metronome
×
Best way to learn
"A Skeleton In The Closet"
Autoscroll
slow
fast
+/-
esc
set tempo
stop
Contributor
#----------------------------------PLEASE NOTE---------------------------------#
#This file is the author's own work and represents their interpretation of the #
#song. You may only use this file for private study, scholarship, or research. #
#------------------------------------------------------------------------------#


Transcribed by unregistered


        



Gtr I (E A D G B E) - 'Untitled'

    Moderate Rock Q=11.,2.,3.
   4/4
    Gtr I
    PM-----------------------------------
    E E E E E E E E   E E E E E E E E
||------------------|------------------||
||o-----------------|-----------------o||
||------------------|------------------||
||------------------|------------------||
||o-4-4-4-4-5-5-5-5-|-3-3-3-3-6-6-6-6-o||
||--2-2-2-2-3-3-3-3-|-1-1-1-1-4-4-4-4--||


  4.                  Faster Q=210
 -------|             PM--------------------|
  E E E E E E E E     S S E S S E S S E S S E  8x
|-----------------||---------------------------||
|-----------------||o-------------------------o||
|-----------------||---------------------------||
|-----------------||---------------------------||
|-3-3-3-3-6-6-6-6-||o-------------------------o||
|-1-1-1-1-4-4-4-4-||--0-0-0-0-0-0-0-0-0-0-0-0--||


              PM--|             PM|           PM--------------------|
    E E E E E E E E   E E E E E E E E         S S E S S E S S E S S E  4x
||------------------|------------------||-||---------------------------||
||o-----------------|-----------------o||-||o-------------------------o||
||------------------|------------------||-||---------------------------||
||------------------|------------------||-||---------------------------||
||o-5---5---5-4---4-|-5---5---5-4---3-o||-||o-------------------------o||
||--3---3---3-2-0-2-|-3---3---3-2-0----||-||--0-0-0-0-0-0-0-0-0-0-0-0--||


              PM--|             PM|
    E E E E E E E E   E E E E E E E E         W          +W
||------------------|------------------||-||-----------|--------|
||o-----------------|-----------------o||-||o----------|--------|
||------------------|------------------||-||-----------|--------|
||------------------|------------------||-||-----------|--------|
||o-5---5---5-4---4-|-5---5---5-4---3-o||-||o-2--------|-(2)----|
||--3---3---3-2-0-2-|-3---3---3-2-0----||-||--0--------|-(0)----|


  PM----------------------------------------------|
  S S E S S E S S E S S E   S S E S S E S S E S S E
|-------------------------|-------------------------|
|-------------------------|-------------------------|
|-------------------------|-------------------------|
|-------------------------|-------------------------|
|-------------------------|-------------------------|
|-0-0-0-0-0-0-0-0-0-0-0-0-|-0-0-0-0-0-0-0-0-0-0-0-0-|


            PM--|             PM|
  E E E E E E E E   E E E E E E E E
|-----------------|------------------|
|-----------------|------------------|
|-----------------|------------------|
|-----------------|------------------|
|-5---5---5-4---4-|-5---5---5-4---3--|
|-3---3---3-2-0-2-|-3---3---3-2-0----|


                                                         1.,2.,3.
            PM--|             PM|                             PM      PM
  E E E E E E E E   E E E E E E E E  4x     Q  Q  Q  Q    E E E E E E E E
|-----------------|------------------||-||--------------|-------------------||
|-----------------|-----------------o||-||o-------------|------------------o||
|-----------------|------------------||-||--------------|-------------------||
|-----------------|------------------||-||--------4--3--|-------------------||
|-5---5---5-4---4-|-5---5---5-4---3-o||-||o-2--4--2--1--|-2-4-----2-4------o||
|-3---3---3-2-0-2-|-3---3---3-2-0----||-||--0--2--------|-0-2-2---0-2-2-----||


  4.
                         PM----|           PM----|
  E E Q  E E E E     E E E E E E E E   E E E E E E E E   E E E E E E E E
|----------------||------------------|-----------------|-----------------|
|----------------||o-----------------|-----------------|-----------------|
|----------------||------------------|-----------------|-----------------|
|----------------||------------------|---2-------------|-----------------|
|-2-4----2-4-1h2-||o-------------1h2-|---0-0-0-0-0-1h2-|-----1h2-----1h2-|
|-0-2----0-2-----||--3p0-0-0-0-0-----|-3---------------|-3p0-----3p0-----|


  1.,2.,3.            4.
                     2/4         4/4
    PM------|           PM------------------------------|
  E E E E E E E E     E E E E     S S E S S E S S E S S E  7x
|------------------||---------||---------------------------||
|-----------------o||---------||o-------------------------o||
|------------------||---------||---------------------------||
|-3----------------||-3-------||---------------------------||
|-1-1-1-1-1-1-1h2-o||-1-1-1-1-||o-------------------------o||
|------------------||---------||--0-0-0-0-0-0-0-0-0-0-0-0--||


              PM--|             PM|
    E E E E E E E E   E E E E E E E E
||------------------|------------------||
||o-----------------|-----------------o||
||------------------|------------------||
||------------------|------------------||
||o-5---5---5-4---4-|-5---5---5-4---3-o||
||--3---3---3-2-0-2-|-3---3---3-2-0----||


                            PM----------------------------------------------|
    W          +W           S S E S S E S S E S S E   S S E S S E S S E S S E
||-----------|------------|-------------------------|-------------------------|
||o----------|------------|-------------------------|-------------------------|
||-----------|------------|-------------------------|-------------------------|
||-----------|------------|-------------------------|-------------------------|
||o-2--------|-(2)--------|-------------------------|-------------------------|
||--0--------|-(0)--------|-0-0-0-0-0-0-0-0-0-0-0-0-|-0-0-0-0-0-0-0-0-0-0-0-0-|


            PM--|             PM|               PM--|             PM|
  E E E E E E E E   E E E E E E E E   E E E E E E E E   E E E E E E E E  4x
|-----------------|-----------------|-----------------|------------------||
|-----------------|-----------------|-----------------|-----------------o||
|-----------------|-----------------|-----------------|------------------||
|-----------------|-----------------|-----------------|------------------||
|-5---5---5-4---4-|-5---5---5-4---3-|-5---5---5-4---4-|-5---5---5-4---3-o||
|-3---3---3-2-0-2-|-3---3---3-2-0---|-3---3---3-2-0-2-|-3---3---3-2-0----||


                 1.,2.,3.             4.
                      PM      PM                             PM----|
    Q  Q  Q  Q    E E E E E E E E     E E Q  E E E E     E E E E E E E E
||--------------|------------------||----------------||-------------------|
||o-------------|-----------------o||----------------||o------------------|
||--------------|------------------||----------------||-------------------|
||--------4--3--|------------------||----------------||-------------------|
||o-2--4--2--1--|-2-4-----2-4-----o||-2-4----2-4-1h2-||o-------------1h2--|
||--0--2--------|-0-2-2---0-2-2----||-0-2----0-2-----||--3p0-0-0-0-0------|


                                     1.,2.,3.             4.
                                                         2/4
      PM----|                           PM------|           PM--|
  E E E E E E E E   E E E E E E E E   E E E E E E E E     E E E E
|-----------------|-----------------|------------------||------------|
|-----------------|-----------------|-----------------o||------------|
|-----------------|-----------------|------------------||------------|
|---2-------------|-----------------|-3----------------||-3----------|
|---0-0-0-0-0-1h2-|-----1h2-----1h2-|-1-1-1-1-1-1-1h2-o||-1-1-1-1----|
|-3---------------|-3p0-----3p0-----|------------------||------------|


 4/4
                            PM------------------------------|
  Q  Q  H      W            E E E E E E E E   E E E E E E E E   4x
|------------|----------||------------------|-------------------||
|------------|----------||o-----------------|------------------o||
|------------|----------||------------------|-------------------||
|-4----------|----------||--4-4-4-4-3-3-3-3-|-------------------||
|-2----------|----------||o-2-2-2-2-1-1-1-1-|-5-5-5-5-2-2-2-2--o||
|------------|----------||------------------|-3-3-3-3-0-0-0-0---||


      PM--|   PM--|     PM--|   PM--|
    E E E E E E E E   E E E E E E E E  3x
||------------------|------------------||
||o-----------------|-----------------o||
||------------------|------------------||
||--4-------3-------|------------------||
||o-2-------1-------|-5-------2-------o||
||----0-0-0---0-0-0-|-3-0-0-0-0-0-0-0--||


    PM--|   PM--|     PM--------------|
  E E E E E E E E   E E E E S S E S S E
|-----------------|----------------------|
|-----------------|----------------------|
|-----------------|----------------------|
|-4-------3-------|----------------------|
|-2-------1-------|-5--------------------|
|---0-0-0---0-0-0-|-3-0-0-0-0-0-0-0-0-0--|


                               2/4               4/4
  PM--------------------------------------------------------------------|
  S S E S S E S S S S S S S S   S S S S S S E     S S E S S E S S E S S E
|-----------------------------|---------------||--------------------------|
|-----------------------------|---------------||o-------------------------|
|-----------------------------|---------------||--------------------------|
|-----------------------------|---------------||--------------------------|
|-----------------------------|---------------||o-------------------------|
|-0-0-0-0-0-0-0-0-0-0-0-0-0-0-|-0-0-0-0-0-0-0-||--0-0-0-0-0-0-0-0-0-0-0-0-|


  PM------------------------------------------------------|
  S S E S S E S S E S S E   S S S S S S S S S S S S S S S S
|-------------------------|----------------------------------||
|-------------------------|---------------------------------o||
|-------------------------|----------------------------------||
|-------------------------|----------------------------------||
|-------------------------|---------------------------------o||
|-0-0-0-0-0-0-0-0-0-0-0-0-|-2-2-2-2-3-3-3-3-1-1-1-1-4-4-4-4--||


  PM-----------------------------------|
  S S E S S E S S E S S E     Q  Q  Q  Q   4x     E E E E E E E E
|-------------------------||---------------||-||--------------------||
|-------------------------||o-------------o||-||o------------------o||
|-------------------------||---------------||-||--------------------||
|-------------------------||---------------||-||--------------------||
|-------------------------||o-4--5--3--6--o||-||o------------------o||
|-0-0-0-0-0-0-0-0-0-0-0-0-||--2--3--1--4---||-||--2-3-1-4-2-3-1-4---||


    PM--------------------|                   PM--|             PM|
    S S E S S E S S E S S E  6x     E E E E E E E E   E E E E E E E E
||---------------------------||-||------------------|------------------||
||o-------------------------o||-||o-----------------|-----------------o||
||---------------------------||-||------------------|------------------||
||---------------------------||-||------------------|------------------||
||o-------------------------o||-||o-5---5---5-4---4-|-5---5---5-4---3-o||
||--0-0-0-0-0-0-0-0-0-0-0-0--||-||--3---3---3-2-0-2-|-3---3---3-2-0----||


                            PM----------------------------------------------|
    W          +W           S S E S S E S S E S S E   S S E S S E S S E S S E
||-----------|------------|-------------------------|-------------------------|
||o----------|------------|-------------------------|-------------------------|
||-----------|------------|-------------------------|-------------------------|
||-----------|------------|-------------------------|-------------------------|
||o-2--------|-(2)--------|-------------------------|-------------------------|
||--0--------|-(0)--------|-0-0-0-0-0-0-0-0-0-0-0-0-|-0-0-0-0-0-0-0-0-0-0-0-0-|


            PM--|             PM|               PM--|             PM|
  E E E E E E E E   E E E E E E E E   E E E E E E E E   E E E E E E E E  4x
|-----------------|-----------------|-----------------|------------------||
|-----------------|-----------------|-----------------|-----------------o||
|-----------------|-----------------|-----------------|------------------||
|-----------------|-----------------|-----------------|------------------||
|-5---5---5-4---4-|-5---5---5-4---3-|-5---5---5-4---4-|-5---5---5-4---3-o||
|-3---3---3-2-0-2-|-3---3---3-2-0---|-3---3---3-2-0-2-|-3---3---3-2-0----||


                 1.,2.,3.             4.
                      PM      PM                             PM----|
    Q  Q  Q  Q    E E E E E E E E     E E Q  E E E E     E E E E E E E E
||--------------|------------------||----------------||-------------------|
||o-------------|-----------------o||----------------||o------------------|
||--------------|------------------||----------------||-------------------|
||--------4--3--|------------------||----------------||-------------------|
||o-2--4--2--1--|-2-4-----2-4-----o||-2-4----2-4-1h2-||o-------------1h2--|
||--0--2--------|-0-2-2---0-2-2----||-0-2----0-2-----||--3p0-0-0-0-0------|


                                     1.,2.,3.,4.,5.       6.
      PM----|                           PM------|           PM----------|
  E E E E E E E E   E E E E E E E E   E E E E E E E E     E E E E E E E E
|-----------------|-----------------|------------------||-----------------|
|-----------------|-----------------|-----------------o||-----------------|
|-----------------|-----------------|------------------||-----------------|
|---2-------------|-----------------|-3----------------||-3---------------|
|---0-0-0-0-0-1h2-|-----1h2-----1h2-|-1-1-1-1-1-1-1h2-o||-1-1-1-1-1-1-1-1-|
|-3---------------|-3p0-----3p0-----|------------------||-----------------|


                 1.,2.,3.             4.
                      PM      PM
    Q  Q  Q  Q    E E E E E E E E     E E Q  E E +Q
||--------------|------------------||------------------*|
||o-------------|-----------------o||------------------*|
||--------------|------------------||------------------*|
||--------4--3--|------------------||------------------*|
||o-2--4--2--1--|-2-4-----2-4-----o||-2-4----2-4-(4)\--*|
||--0--2--------|-0-2-2---0-2-2----||-0-2----0-2-(2)\--*|



Duration Legend
---------------
W - whole; H - half; Q - quarter; E - 8th; S - 16th; T - 32nd; X - 64th; a - acciaccatura
+ - note tied to previous; . - note dotted; .. - note double dotted
Uncapitalized letters represent notes that are staccato (1/2 duration)
Irregular groupings are notated above the duration line
Duration letters will always appear directly above the note/fret number it represents the
duration for.  Duration letters with no fret number below them represent rests.  Multi-
bar rests are notated in the form Wxn, where n is the number of bars to rest for.  Low
melody durations appear below the staff

Tablature Legend
----------------
 h   - hammer-on
 p   - pull-off
 b   - bend
 pb  - pre-bend
 r   - bend release (if no number after the r, then release immediately)
 /\  - slide into or out of (from/to "nowhere")
 s   - legato slide
 S   - shift slide
 - natural harmonic
[n]  - artificial harmonic
n(n) - tapped harmonic
 ~   - vibrato
 tr  - trill
 T   - tap
 TP  - trem. picking
 PM  - palm muting
\n/  - tremolo bar dip; n = amount to dip
 \n  - tremolo bar down
 n/  - tremolo bar up
/n\  - tremolo bar inverted dip
 =   - hold bend; also acts as connecting device for hammers/pulls
 <> - volume swell (louder/softer)
 x   - on rhythm slash represents muted slash
 o   - on rhythm slash represents single note slash

Misc Legend
-----------
 |  - bar
||  - double bar
||o - repeat start
o|| - repeat end
*|  - double bar (ending)
 :  - bar (freetime)
 $  - Segno
 &  - Coda
Tempo markers -  = BPM(8/16=s8/s16), where s8 = swing 8ths, s16 = swing 16ths

comments
We did not receive enough feedback on this tab! Please rate:
print report bad tab
1 2 3 4 5
I want to post or [tab]
guest
You may want to rate the tab now too:
select rating
Please do not post tabs as comments. Select "correction" instead!