Oops, an error
Loading. Please wait.

A Skeleton In The Closet bass

version 2
version 2

Whole song

by Anthrax
1,143 views 3 this week
no commentswrite comment
1 2 3 4 5
3 more votes to show rating
add to favorites
×
Save as Personal and add changes to this tab that will be seen only by you. Learn more ›
×
You can save this tab as Personal to edit and correct it or add notes. All changes will be seen only by you. Learn more »
launch autoscroll
font size
0
reset
guitar tuner
edit
Autoscroll
slow
fast
+/-
esc
set tempo
stop
Author
Difficulty
Tabbers playing skills
intermediate
intermediate ++
-------------------------------------------------------------------------------
                        A SKELETON IN THE CLOSET - Anthrax
-------------------------------------------------------------------------------

Tabbed By : Bastián "technoguyx" Núñez
e-mail: technoguyx@gmail.com

Tempo = 152

Intro (0:00)
     E  E  E  E  E  E  E  E     E  E  E  E  E  E  E  E   4x
G|--------------------------|---------------------------||
D|*-------------------------|--------------------------*||
A|*-------------------------|--------------------------*||
E|--2--2--2--2--3--3--3--3--|--1--1--1--1--4--4--4--4---||

Tempo = 200~

G|-------|-------|-------|-------|
D|-------|-------|-------|-------|
A|-------|-------|-------|-------|
E|-------|-------|-------|-------|

Main Riff (0:18)

     S S E  S S E  S S E  S S E   4x
G|--------------------------------||
D|*------------------------------*||
A|*------------------------------*||
E|---0-0-0--0-0-0--0-0-0--0-0-0---||


     E  E  E  E  E  E  E  E     E  E  E  E  E  E  E  E     
G|---------------------------|---------------------------||
D|*--------------------------|--------------------------*||
A|*--------------------------|-----------------------3--*||
E|---3-----3-----3--2--0--2--|--3-----3-----3--1--0------||

Main Riff (0:27)

     S S E  S S E  S S E  S S E   4x
G|--------------------------------||
D|*------------------------------*||
A|*------------------------------*||
E|---0-0-0--0-0-0--0-0-0--0-0-0---||


     E  E  E  E  E  E  E  E     E  E  E  E  E  E  E  E     
G|---------------------------|---------------------------||
D|*--------------------------|--------------------------*||
A|*--------------------------|-----------------------3--*||
E|---3-----3-----3--2--0--2--|--3-----3-----3--1--0------||

Main Riff w/Fill 1 (0:37)

     S S E  S S E  S S E  S S E     
G|--------------------------------||
D|*------------------------------*||
A|*------------------------------*||
E|---0-0-0--0-0-0--0-0-0--0-0-0---||


     S S E  S S E  S S E  S S E     
G|--------------------------------||
D|*------------------------------*||
A|*--7-7-7--7-7-7--7-7-7--7-7-7--*||
E|--------------------------------||


     E  E  E  E  E  E  E  E     E  E  E  E  E  E  E  E     
G|---------------------------|---------------------------||
D|*--------------------------|--------------------------*||
A|*--------------------------|-----------------------3--*||
E|---3-----3-----3--2--0--2--|--3-----3-----3--1--0------||

Main Riff w/Fill 2 (0:47)

     S S E  S S E  S S E  S S E     
G|--------------------------------||
D|*------------------------------*||
A|*------------------------------*||
E|---0-0-0--0-0-0--0-0-0--0-0-0---||


     S  S  S  S  S  S  S  S  S  S  S  S  S  S  S  S  
G|--------------------------------------------------|
D|--12-14-14-14-14-14-14-14-12-14-14-14-14-14-14-14-|
A|--------------------------------------------------|
E|--------------------------------------------------|


     S  S  S  S  S  S  S  S  H          
G|--------------------------12\--------|
D|--12-14-14-14-14-14-14-14------------|
A|-------------------------------------|
E|-------------------------------------|


     E  E  E  E  E  E  E  E     E  E  E  E  E  E  E  E     
G|---------------------------|---------------------------||
D|*--------------------------|--------------------------*||
A|*--------------------------|-----------------------3--*||
E|---3-----3-----3--2--0--2--|--3-----3-----3--1--0------||

Main Riff w/Fill 1 (0:57)

     S S E  S S E  S S E  S S E     
G|--------------------------------||
D|*------------------------------*||
A|*------------------------------*||
E|---0-0-0--0-0-0--0-0-0--0-0-0---||


     S S E  S S E  S S E  S S E     
G|--------------------------------||
D|*------------------------------*||
A|*--7-7-7--7-7-7--7-7-7--7-7-7--*||
E|--------------------------------||


     E  E  E  E  E  E  E  E     E  E  E  E  E  E  E  E     
G|---------------------------|---------------------------||
D|*--------------------------|--------------------------*||
A|*--------------------------|-----------------------3--*||
E|---3-----3-----3--2--0--2--|--3-----3-----3--1--0------||

Main Riff w/Fill 3 (1:06)

     S S E  S S E  S S E  S S E     
G|--------------------------------||
D|*------------------------------*||
A|*------------------------------*||
E|---0-0-0--0-0-0--0-0-0--0-0-0---||


    S S S S S S S S S S S S S S S S  
G|--7-9-9-9-9-9-9-9-----------------|
D|------------------9-9-9-9-9-9-9-9-|
A|----------------------------------|
E|----------------------------------|


    S S S S S S S S H              E  E  E  E  E  E  E  E   
G|----------------------------||---------------------------|
D|----------------------------||*--------------------------|
A|--7-7-7-7-7-7-7-7-7\--------||*--------------------------|
E|----------------------------||---3-----3-----3--2--0--2--|

                             Pre-Chorus (1:15)

    E  E  E  E  E  E  E  E       Q    Q    Q    Q     
G|---------------------------||----------------------|
D|--------------------------*||----------------------|
A|-----------------------3--*||------------2----1----|
E|--3-----3-----3--1--0------||--0----3--------------|

    E  E  Q    E  E  Q       Q    Q    Q    Q     
G|------------------------|----------------------|
D|------------------------|----------------------|
A|--0--1-------0--1-------|------------2----1----|
E|------------------------|--0----3--------------|


    E  E  E  E  E  E  Q       Q    Q    Q    Q     
G|-------------------------|----------------------|
D|--2--4--4--4--2--4-------|----------------------|
A|-------------------------|------------2----1----|
E|-------------------------|--0----3--------------|


    E  E  Q    E  E  Q       Q    Q    Q    Q     
G|------------------------|----------------------|
D|------------------------|----------------------|
A|--0--1-------0--1-------|------------2----1----|
E|------------------------|--0----3--------------|

                            Chorus (1:25)

    E  E  Q    E  E  E  E       E  E  E  E  E  E  E  E   
G|-------------------------||---------------------------|
D|-------------------------||*--------------------------|
A|-------------------1--2--||*--------------------1--2--|
E|--0--2-------0--2--------||---3--0--0--0--0--0--------|


    E  E  E  E  E  E  E  E     E  E  E  E  E  E  E  E   
G|--------------------------|--------------------------|
D|--------------------------|--------------------------|
A|-----0--0--0--0--0--1--2--|--------1--2--------1--2--|
E|--3-----------------------|--3--0--------3--0--------|


    E  E  E  E  E  E  E  E   4x  E  E  E  E                   
G|---------------------------||--------------|-------|-------|
D|--------------------------*||--------------|-------|-------|
A|--1--1--1--1--1--1--1--2--*||--1--1--1--1--|-------|-------|
E|---------------------------||--------------|-------|-------|

                  Main Riff (1:48)

                      S S E  S S E  S S E  S S E   4x
G|-------|-------||--------------------------------||
D|-------|-------||*------------------------------*||
A|-------|-------||*------------------------------*||
E|-------|-------||---0-0-0--0-0-0--0-0-0--0-0-0---||


     E  E  E  E  E  E  E  E     E  E  E  E  E  E  E  E     
G|---------------------------|---------------------------||
D|*--------------------------|--------------------------*||
A|*--------------------------|-----------------------3--*||
E|---3-----3-----3--2--0--2--|--3-----3-----3--1--0------||

Main Riff w/Fill 1 (1:57)

     S S E  S S E  S S E  S S E     
G|--------------------------------||
D|*------------------------------*||
A|*------------------------------*||
E|---0-0-0--0-0-0--0-0-0--0-0-0---||


     S S E  S S E  S S E  S S E     
G|--------------------------------||
D|*------------------------------*||
A|*--7-7-7--7-7-7--7-7-7--7-7-7--*||
E|--------------------------------||


     E  E  E  E  E  E  E  E     E  E  E  E  E  E  E  E     
G|---------------------------|---------------------------||
D|*--------------------------|--------------------------*||
A|*--------------------------|-----------------------3--*||
E|---3-----3-----3--2--0--2--|--3-----3-----3--1--0------||

Main Riff w/Fill 2 (2:07)

     S S E  S S E  S S E  S S E     
G|--------------------------------||
D|*------------------------------*||
A|*------------------------------*||
E|---0-0-0--0-0-0--0-0-0--0-0-0---||


     S  S  S  S  S  S  S  S  S  S  S  S  S  S  S  S  
G|--------------------------------------------------|
D|--12-14-14-14-14-14-14-14-12-14-14-14-14-14-14-14-|
A|--------------------------------------------------|
E|--------------------------------------------------|


     S  S  S  S  S  S  S  S  H          
G|--------------------------12\--------|
D|--12-14-14-14-14-14-14-14------------|
A|-------------------------------------|
E|-------------------------------------|


     E  E  E  E  E  E  E  E     E  E  E  E  E  E  E  E     
G|---------------------------|---------------------------||
D|*--------------------------|--------------------------*||
A|*--------------------------|-----------------------3--*||
E|---3-----3-----3--2--0--2--|--3-----3-----3--1--0------||

Main Riff w/Fill 4 (2:16)

     S S E  S S E  S S E  S S E     
G|--------------------------------||
D|*------------------------------*||
A|*------------------------------*||
E|---0-0-0--0-0-0--0-0-0--0-0-0---||


     S S S S S S S S S S S S S S S S    
G|------------------------------------||
D|*--0-2-2-2-2-2-2-2-0-2-2-2-2-2-2-2-*||
A|*----------------------------------*||
E|------------------------------------||


     E  E  E  E  E  E  E  E     E  E  E  E  E  E  E  E     
G|---------------------------|---------------------------||
D|*--------------------------|--------------------------*||
A|*--------------------------|-----------------------3--*||
E|---3-----3-----3--2--0--2--|--3-----3-----3--1--0------||

Main Riff w/Fill 3 (2:26)

     S S E  S S E  S S E  S S E     
G|--------------------------------||
D|*------------------------------*||
A|*------------------------------*||
E|---0-0-0--0-0-0--0-0-0--0-0-0---||


    S S S S S S S S S S S S S S S S  
G|--7-9-9-9-9-9-9-9-----------------|
D|------------------9-9-9-9-9-9-9-9-|
A|----------------------------------|
E|----------------------------------|


    S S S S S S S S H              E  E  E  E  E  E  E  E   
G|----------------------------||---------------------------|
D|----------------------------||*--------------------------|
A|--7-7-7-7-7-7-7-7-7\--------||*--------------------------|
E|----------------------------||---3-----3-----3--2--0--2--|

                              Pre-Chorus (2:35)

    E  E  E  E  E  E  E  E       Q    Q    Q    Q     
G|---------------------------||----------------------|
D|--------------------------*||----------------------|
A|-----------------------3--*||------------2----1----|
E|--3-----3-----3--1--0------||--0----3--------------|


    E  E  Q    E  E  Q       Q    Q    Q    Q     
G|------------------------|----------------------|
D|------------------------|----------------------|
A|--0--1-------0--1-------|------------2----1----|
E|------------------------|--0----3--------------|


    E  E  E  E  E  E  Q       Q    Q    Q    Q     
G|-------------------------|----------------------|
D|--2--4--4--4--2--4-------|----------------------|
A|-------------------------|------------2----1----|
E|-------------------------|--0----3--------------|


    E  E  Q    E  E  Q       Q    Q    Q    Q     
G|------------------------|----------------------|
D|------------------------|----------------------|
A|--0--1-------0--1-------|------------2----1----|
E|------------------------|--0----3--------------|

                            Chorus (2:45)

    E  E  Q    E  E  E  E       E  E  E  E  E  E  E  E   
G|-------------------------||---------------------------|
D|-------------------------||*--------------------------|
A|-------------------1--2--||*--------------------1--2--|
E|--0--2-------0--2--------||---3--0--0--0--0--0--------|


    E  E  E  E  E  E  E  E     E  E  E  E  E  E  E  E   
G|--------------------------|--------------------------|
D|--------------------------|--------------------------|
A|-----0--0--0--0--0--1--2--|--------1--2--------1--2--|
E|--3-----------------------|--3--0--------3--0--------|


    E  E  E  E  E  E  E  E   4x  E  E  E  E   
G|---------------------------||--------------|
D|--------------------------*||--------------|
A|--1--1--1--1--1--1--1--2--*||--1--1--1--1--|
E|---------------------------||--------------|

Bass Break (3:03)

     E   E   E  E  E   E  E  E   
G|------11--10--------10--9-----|
D|*--9----------9--8---------8--|
A|*-----------------------------|
E|------------------------------|

                              Solo Backing (3:15)

    E   E   E   E  H         5x   E  E  E  E  E  E  E  E   
G|---------------------------||---------------------------|
D|--7--12--11---------------*||*--------------------------|
A|-------------10-----------*||*--------------1-----------|
E|-----------------0---------||---3--0--0--0-----0--0--0--|


    E  E  E  E  E  E  E  E   4x  E  E  E  E   
G|---------------------------||--------------|
D|--------------------------*||--------------|
A|--------------------------*||--------------|
E|--3--0--0--0--0--0--0--0---||--3--0--0--0--|

Bridge (3:24)

    S S E  S S E  S S E  S S E   
G|------------------------------|
D|------------------------------|
A|------------------------------|
E|--0-0-0--0-0-0--0-0-0--0-0-0--|


    S S E  S S E  S S S S S S S S  
G|--------------------------------|
D|--------------------------------|
A|--------------------------------|
E|--0-0-0--0-0-0--0-0-0-0-0-0-0-0-|


    S S S S S S S S S S S S S S S S  
G|----------------------------------|
D|----------------------------------|
A|----------------------------------|
E|--0-0-0-0-0-0-0-0-0-0-0-0-0-0-0-0-|


    S S S S S S S S S S S S S S S S  
G|----------------------------------|
D|----------------------------------|
A|----------------------------------|
E|--0-0-0-0-0-0-0-0-0-0-0-0-0-0-0-0-|


     S S S S S S S S S S S S S S S S  
G|-----------------------------------|
D|*--4-4-4-4-5-5-5-5-3-3-3-3-6-6-6-6-|
A|*----------------------------------|
E|-----------------------------------|


    S S S S S S S S S S S S S S S S  4x
G|-----------------------------------||
D|--2-2-2-2-2-2-2-2-2-2-2-2-2-2-2-2-*||
A|----------------------------------*||
E|-----------------------------------||


     Q    Q    Q    Q     4x   E  E  E  E  E  E  E  E     
G|---6----7----5----8-----||----------------------------||
D|*--4----5----3----6----*||*--4--5--3--6--4--5--3--6--*||
A|*----------------------*||*--------------------------*||
E|------------------------||----------------------------||


    E  H.           E           
G|---------------------|-------|
D|---------------------|-------|
A|---------------------|-------|
E|--0------------------|-------|

Main Riff w/Fill 1 (3:49)

     S S E  S S E  S S E  S S E     
G|--------------------------------||
D|*------------------------------*||
A|*------------------------------*||
E|---0-0-0--0-0-0--0-0-0--0-0-0---||


     S S E  S S E  S S E  S S E     
G|--------------------------------||
D|*------------------------------*||
A|*--7-7-7--7-7-7--7-7-7--7-7-7--*||
E|--------------------------------||


     E  E  E  E  E  E  E  E     E  E  E  E  E  E  E  E     
G|---------------------------|---------------------------||
D|*--------------------------|--------------------------*||
A|*--------------------------|-----------------------3--*||
E|---3-----3-----3--2--0--2--|--3-----3-----3--1--0------||

Main Riff w/Fill 1 (3:59)

     S S E  S S E  S S E  S S E     
G|--------------------------------||
D|*------------------------------*||
A|*------------------------------*||
E|---0-0-0--0-0-0--0-0-0--0-0-0---||


     S S E  S S E  S S E  S S E     
G|--------------------------------||
D|*------------------------------*||
A|*--7-7-7--7-7-7--7-7-7--7-7-7--*||
E|--------------------------------||


     E  E  E  E  E  E  E  E     E  E  E  E  E  E  E  E     
G|---------------------------|---------------------------||
D|*--------------------------|--------------------------*||
A|*--------------------------|-----------------------3--*||
E|---3-----3-----3--2--0--2--|--3-----3-----3--1--0------||

Main Riff w/Fill 2 (4:08)

     S S E  S S E  S S E  S S E     
G|--------------------------------||
D|*------------------------------*||
A|*------------------------------*||
E|---0-0-0--0-0-0--0-0-0--0-0-0---||


     S  S  S  S  S  S  S  S  S  S  S  S  S  S  S  S  
G|--------------------------------------------------|
D|--12-14-14-14-14-14-14-14-12-14-14-14-14-14-14-14-|
A|--------------------------------------------------|
E|--------------------------------------------------|


     S  S  S  S  S  S  S  S  H          
G|--------------------------12\--------|
D|--12-14-14-14-14-14-14-14------------|
A|-------------------------------------|
E|-------------------------------------|


     E  E  E  E  E  E  E  E     E  E  E  E  E  E  E  E     
G|---------------------------|---------------------------||
D|*--------------------------|--------------------------*||
A|*--------------------------|-----------------------3--*||
E|---3-----3-----3--2--0--2--|--3-----3-----3--1--0------||

Main Riff w/Fill 1 (4:17)

     S S E  S S E  S S E  S S E     
G|--------------------------------||
D|*------------------------------*||
A|*------------------------------*||
E|---0-0-0--0-0-0--0-0-0--0-0-0---||


     S S E  S S E  S S E  S S E     
G|--------------------------------||
D|*------------------------------*||
A|*--7-7-7--7-7-7--7-7-7--7-7-7--*||
E|--------------------------------||


     E  E  E  E  E  E  E  E     E  E  E  E  E  E  E  E     
G|---------------------------|---------------------------||
D|*--------------------------|--------------------------*||
A|*--------------------------|-----------------------3--*||
E|---3-----3-----3--2--0--2--|--3-----3-----3--1--0------||

Main Riff w/Fill 3 (4:27)

     S S E  S S E  S S E  S S E     
G|--------------------------------||
D|*------------------------------*||
A|*------------------------------*||
E|---0-0-0--0-0-0--0-0-0--0-0-0---||


    S S S S S S S S S S S S S S S S  
G|--7-9-9-9-9-9-9-9-----------------|
D|------------------9-9-9-9-9-9-9-9-|
A|----------------------------------|
E|----------------------------------|


    S S S S S S S S H              E  E  E  E  E  E  E  E   
G|----------------------------||---------------------------|
D|----------------------------||*--------------------------|
A|--7-7-7-7-7-7-7-7-7\--------||*--------------------------|
E|----------------------------||---3-----3-----3--2--0--2--|

                              Pre-Chorus (4:36)

    E  E  E  E  E  E  E  E       Q    Q    Q    Q     
G|---------------------------||----------------------|
D|--------------------------*||----------------------|
A|-----------------------3--*||------------2----1----|
E|--3-----3-----3--1--0------||--0----3--------------|


    E  E  Q    E  E  Q       Q    Q    Q    Q     
G|------------------------|----------------------|
D|------------------------|----------------------|
A|--0--1-------0--1-------|------------2----1----|
E|------------------------|--0----3--------------|


    E  E  E  E  E  E  Q       Q    Q    Q    Q     
G|-------------------------|----------------------|
D|--2--4--4--4--2--4-------|----------------------|
A|-------------------------|------------2----1----|
E|-------------------------|--0----3--------------|


    E  E  Q    E  E  Q       Q    Q    Q    Q     
G|------------------------|----------------------|
D|------------------------|----------------------|
A|--0--1-------0--1-------|------------2----1----|
E|------------------------|--0----3--------------|

                            Final Chorus (4:46)

    E  E  Q    E  E  E  E       E  E  E  E  E  E  E  E   
G|-------------------------||---------------------------|
D|-------------------------||*--------------------------|
A|-------------------1--2--||*--------------------1--2--|
E|--0--2-------0--2--------||---3--0--0--0--0--0--------|


    E  E  E  E  E  E  E  E     E  E  E  E  E  E  E  E   
G|--------------------------|--------------------------|
D|--------------------------|--------------------------|
A|-----0--0--0--0--0--1--2--|--------1--2--------1--2--|
E|--3-----------------------|--3--0--------3--0--------|

                              Pre-Chorus/Outro (5:15)

    E  E  E  E  E  E  E  E   6x  Q    Q    Q    Q     
G|---------------------------||----------------------|
D|--------------------------*||----------------------|
A|--1--1--1--1--1--1--1--2--*||------------2----1----|
E|---------------------------||--0----3--------------|


    E  E  Q    E  E  Q       Q    Q    Q    Q     
G|------------------------|----------------------|
D|------------------------|----------------------|
A|--0--1-------0--1-------|------------2----1----|
E|------------------------|--0----3--------------|


    E  E  E  E  E  E  Q       Q    Q    Q    Q     
G|-------------------------|----------------------|
D|--2--4--4--4--2--4-------|----------------------|
A|-------------------------|------------2----1----|
E|-------------------------|--0----3--------------|


    E  E  Q    E  E  Q       Q    Q    Q    Q     
G|------------------------|----------------------|
D|------------------------|----------------------|
A|--0--1-------0--1-------|------------2----1----|
E|------------------------|--0----3--------------|


    E  E  Q    E  E  Q      
G|------------------------||
D|------------------------||
A|------------------------||
E|--0--2-------0--2-------||




Duration Legend
---------------
W - whole
H - half
Q - quarter
E - 8th
S - 16th
T - 32nd
X - 64th
. - note dotted
|-n-|  - n-tuplets


Tablature Legend
----------------
L - tied note
x - dead note
g - grace note
(n) - ghost note
> - accentuded note
NH - natural harmonic
AH - artificial harmonic
TH - tapped harmonic
SH - semi harmonic
PH - pitch harmonic
h - hammer on
p - pull off
b - bend
br - bendRelease
pb - preBend
pbr - preBendRelease
brb - bendReleaseBend
\n/ - tremolo bar dip
\n - tremolo bar dive
-/n - tremolo bar Release up
/n\ - tremolo bar inverted dip
/n - tremolo bar return
-\n - tremolo bar Release down
S - shift slide
s - legato slide
/ -  slide into from below or out of upwards
\ -  slide into from above or out of downwards
~ - vibrato
W - wide vibrato
tr - trill
TP - tremolo picking
T - tapping
S - slap
P - pop
< - fade in
^ - brush up
v - brush down
Suggest correction
Creating personal tab
Creating personal tab
You can edit any tab online and save it as your Personal.

You can edit, replace or remove any tab part or add personal notes – all changes will be seen only by you.

Personal tabs can be accessed anytime from any device, even offline.
Learn more »
Give kudos to tab author, rate the tab!
1 2 3 4 5
comments
print report bad tab
guest
You may want to rate the tab now too:
select rating
Wanna post a correction for this tab? Suggest correction