Oops, an error
Loading. Please wait.

Adi Horror Of It All tab

version 1
version 1

Whole song

Interactive

by Anthrax
6,907 views 12 this week
no commentswrite comment
1 2 3 4 5
2 more votes to show rating
add to favorites
×
Save as Personal and add changes to this tab that will be seen only by you. Learn more ›
×
You can save this tab as Personal to edit and correct it or add notes. All changes will be seen only by you. Learn more »
launch autoscroll
font size
0
reset
how to read this tab
guitar tuner
edit
Autoscroll
slow
fast
+/-
esc
set tempo
stop
Author
Difficulty
Band: Anthrax
Song: Adi Horror Of It Al
Tabber:We_Wont_Die

Tuning: EADGBe

Key: / Slide
     x Mute/Palm Mute

Riff 1 (Clean)
|------------------------------------|
|-3-3---3------3---------3---3-----3-|
|-1---1-2--1/2----2-1-0----1---1/2-0-|
|-0-----0--------------------------0-|
|-0-----0--------------------------0-|
|------------------------------------|

|-----------------------|
|-3-3---3------3------3-|
|-1---1-2--1/2----2-1-0-|
|-0-----0-------------0-|
|-0-----0-------------0-|
|-----------------------|
                                        
Riff 2 (Clean)
|---5-------------------------------|
|-----6--------3-3--------------3-3-|
|-------5----0---2------------2---1-|
|-0--------3-----3--3-2h3p2-0-----0-|
|----------------0----------------0-|    
|-----------------------------------|     
                                          
|---5-------------------------------|     
|-----6--------3-3--------------3-3-|     
|-------5----0---2------------1---2-|     
|-0--------2-----3--3-2h3p2-0-----0-|
|----------------0----------------0-|
|-----------------------------------|

|---5-------------------------------|
|-----6--------3-3--------------3-3-|
|-------5----0---2------------2---1-|
|-0--------3-----3--3-2h3p2-0-----0-|
|----------------0----------------0-|
|-----------------------------------|

|---5--------------------------------------------|
|-----6----------3----3------------------3-----3-|
|-------5-----0------2----------------1-------2--|
|-0--------2--------3------3-2h3p2-0---------0---|
|------------------0------------------------0----|
|------------------------------------------------|

Riff 3 (Distorted)               
|---------------------------------|
|---------------------------------|
|---------------------------------|
|-7-----7-------------------------|
|-5-----5-------------------------|
|---0-0---0-0-0-0-0-0-0-0-0-0-0-0-|
     x x   x x x x x x x x x x x x
                               
|---------------------------------|
|---------------------------------|
|---------------------------------|
|-7-----7----------7-6-5--3-4-7-6-|
|-5-----5-------55-5-4-3--1-2-5-4-|
|---0-0---0-0-0-------------------|
     x x   x x x

Riff 4 (Distorted)
|---------------------------------|
|---------------------------------|
|---------------------------------|
|-3/4-------------3/4-------------|
|-1/2-------------1/2-------------|
|-----0-0-0-0-0-0-----0-0-0-0-0-0-|
       x x x x x x     x x x x x x 

|---------------------------------|
|---------------------------------|
|---------------------------------|
|-3/4-----3/4-----3/4-------------|
|-1/2-----1/2-----1/2-------------|
|-----0-0-----0-0-----3-3-3-3-3-3-|
       x x     x x     

|-------------------------|
|-------------------------|
|-------------------------|
|-3/4-----3/4-----3/4-----|
|-1/2-----1/2-----1/2-----|
|-----0-0-----0-0-----0-0-|
       x x     x x     x x 

Riff 5 (Distorted)                      
|-------------------------------|
|-------------------------------|
|-------------------------------|
|-3/4------------3/4------------|
|-1/2---5--------1/2---5--------|
|-----0-3----0-0-----0-3----0-0-|
       x      x x     x      x x

|--------------------------------------------|
|--------------------------------------------|
|----------7--6--5---------------7--6--5-----|
|-3/4-------------------3/4------------------|
|-1/2---5--5--4--3------1/2---5--5--4--3-----|
|-----0-3-----------0-0-----0-3----------0-0-|
       x             x x     x            x x 

|--------------------------------------------------|
|--------------------------------------------------|
|----------7--6--5---------------7--6--5-----------|
|-3/4-------------------3/4------------------3/4-3-|
|-1/2---5--5--4--3------1/2---5--5--4--3-----1/2-1-|
|-----0-3-----------0-0-----0-3----------0-0-------|
       x             x x     x            x x  

Riff 6 (Distorted)
|-------------------------------|
|-------------------------------|
|-------------------------------|
|-4-------3---------------------|
|-2-2-----1-2-----5-----3--3----|
|---0-0-0---0-0-0-3-0-0-1--1--0-|
       x x     x x   x x       x 

Riff 3 Pt.1 (Distorted)
|---------------------------------|
|---------------------------------|
|---------------------------------|
|-7-----7-------------------------|
|-5-----5-------------------------|
|---0-0---0-0-0-0-0-0-0-0-0-0-0-0-|
     x x   x x x x x x x x x x x x
   
|---------------------------------|
|---------------------------------|
|---------------------------------|
|-7-----7----------7-6-5--3-4-7-6-|
|-5-----5-------55-5-4-3--1-2-5-4-|
|---0-0---0-0-0-------------------|
     x x   x x x 
   
Riff 5 Pt.1 (Distorted)
|--------------------------------------|
|--------------------------------------|
|----7--6--5---------------7--6--5-----|
|-----------------3/4------------------|
|-5--5--4--3------1/2---5--5--4--3-----|
|-3-----------0-0-----0-3----------0-0-|
               x x     x            x x
    
|--------------------------------------------------|
|--------------------------------------------------|
|----------7--6--5---------------7--6--5-----------|
|-3/4-------------------3/4------------------3/4-3-|
|-1/2---5--5--4--3------1/2---5--5--4--3-----1/2-1-|
|-----0-3-----------0-0-----0-3----------0-0-------|
       x             x x     x            x x

Riff 7 (Distorted)
|-------------------------------------|
|-------------------------------------|
|-------------------------------------|
|--------------------------------3----|
|-5----4--4--4--4--2----4--4--4--1--3-|
|-3----2--2--2--2--0----2--2--2-----1-|
                       
|--------------------------------|
|--------------------------------|
|--------------------------------|
|---------------------------3----|
|-4--4--4--4--2----4--4--4--1--3-|
|-2--2--2--2--0----2--2--2-----1-|
   
Riff 7 Pt.1 (Distorted)
|--------------------------------|
|--------------------------------|
|--------------------------------|
|--------------------------------|
|-----4-----4-----4-----4-----2--|
|-0-0-2-0-0-2-0-0-2-0-0-2-0-0-0--|
   x x   x x   x x   x x   x x 
   
|-----------------------------|
|-----------------------------|
|-----------------------------|
|-----------------------3-----|
|-----4-----4-----4-----1--3--|
|-0-0-2-0-0-2-0-0-2-0-0----1--|
   x x   x x   x x   x x

Riff 7 Pt.2 (Distorted)
|--------------------------------|
|--------------------------------|
|--------------------------------|
|--------------------------------|
|-----4-----4-----4-----4-----2--|
|-0-0-2-0-0-2-0-0-2-0-0-2-0-0-0--|
   x x   x x   x x   x x   x x 
   
|-----------------------------|
|-----------------------------|
|-----------------------------|
|-----------------------3-----|
|-----4-----4-----4-----1--3--|
|-0-0-2-0-0-2-0-0-2-0-0----1--|
   x x   x x   x x   x x 
   
|--------------------------|
|--------------------------|
|--------------------------|
|--------------------------|
|-----4-----4-----4--------|
|-0-0-2-0-0-2-0-0-2-0-0-0--|
   x x   x x   x x   x x x
  
Riff 5 Pt.2 (Distorted)
|-------------------------------|
|-------------------------------|
|-------------------------------|
|-3/4------------3/4------------|
|-1/2---5--------1/2---5--------|
|-----0-3----0-0-----0-3----0-0-|
       x      x x     x      x x
              
|-----------------------------------------------------|
|-----------------------------------------------------|
|-----------------------------------------------------|
|-3/4------------3/4----------------------------------|
|-1/2---5--------1/2---5------------------------------|
|-----0-3----0-0-----0-3--3-3-3-3-3-3-3-3-3-3-3-3-3-3-|
       x      x x     x    x x x x x x x x x x x x x x  

Riff 8 (Distorted)
|--------------------------------|
|--------------------------------|
|--------------------------------|
|--------------------------------|
|-5--------6-------5-------------|
|-3--3-6-3---3-6-3---3-6-3-6-6-6-|
      x x x   x x x   x x x x x x 
|--------------------------------|
|--------------------------------|
|--------------------------------|
|--------------------------------|
|-5--------6-------5---------3-3-|
|-3--3-6-3---3-6-3---3-6-3-6-----|
      x x x   x x x   x x x x 

Riff 9 (Distorted)
|--------------------------------|
|--------------------------------|
|--------------------------------|
|--------------------------------|
|-5------------------------------|
|-3--3-3-3-3-3-3-3-3-3-3-3-6-6-6-|
      x x x x x x x x x x x 

|--------------------------------|
|--------------------------------|
|--------------------------------|
|--------------------------------|
|-5------------------------3-3-3-|
|-3--3-3-3-3-3-3-3-3-3-3-3-------|
      x x x x x x x x x x x 

Riff 5 Pt.3 (Distorted)
|---------------------------------|
|---------------------------------|
|---------------------------------|
|----------3/4------------3/4-----|
|-5--------1/2---5--------1/2---5-|
|-3----0-0-----0-3----0-0-----0-3-|
        x x     x      x x     x

|--------------------|
|--------------------|
|--------------------|
|-----3/4------------|
|-----1/2---5--------|
|-0-0-----0-3----0-0-|
   x x     x      x x                     

|--------------------------------------------|
|--------------------------------------------|
|----------7--6--5---------------7--6--5-----|
|-3/4-------------------3/4------------------|
|-1/2---5--5--4--3------1/2---5--5--4--3-----|
|-----0-3-----------0-0-----0-3----------0-0-|
       x             x x     x            x x
        
|--------------------------------------------------|
|--------------------------------------------------|
|----------7--6--5---------------7--6--5-----------|
|-3/4-------------------3/4------------------3/4---|
|-1/2---5--5--4--3------1/2---5--5--4--3-----1/2---|
|-----0-3-----------0-0-----0-3----------0-0-----0-|
       x             x x     x            x x     x

Riff 6 (Distorted) 
|-------------------------------------------------------------|
|-------------------------------------------------------------|
|-------------------------------------------------------------|
|---4-------3-------------------------------------------------|
|---2-2-----1-2-----5-----3-3-----3-3-----3-3-----------------|
|-0---0-0-0---0-0-0-3-0-0-1-1--xx-1-1--xx-1-1-----------------|
   x     x x     x x   x x  

            
            
Suggest correction
Creating personal tab
Creating personal tab
You can edit any tab online and save it as your Personal.

You can edit, replace or remove any tab part or add personal notes – all changes will be seen only by you.

Personal tabs can be accessed anytime from any device, even offline.
Learn more »
Give kudos to tab author, rate the tab!
1 2 3 4 5
comments
print report bad tab
guest
You may want to rate the tab now too:
select rating
Wanna post a correction for this tab? Suggest correction