Oops, an error
Loading. Please wait.

Aftershock Tab

version 1
version 1

Whole song

Interactive

2,384 views 1 this week
no commentswrite comment
1 2 3 4 5
excellent!
x 4
add to favorites
launch autoscroll
font size
0
reset
how to read this tab
guitar tuner
Tab Pro tools
  • play this tab
  • loop segment
  • change instrument
  • show fretboard
  • metronome
Autoscroll
slow
fast
+/-
esc
set tempo
stop
Difficulty
novice
#---------------------------------PLEASE NOTE-------------------------------#
# This file is the author's work and represents their interpretation of the #
# song. ONLY use this file for private study, scholarship, or research      #
# This is NOT an official tab from the band members                         #
#---------------------------------------------------------------------------#
  
                                  Aftershock
                                  By Anthrax
                    From the 1985 Album Spreading The Disease

                                           _______________________
Transcribed by:                           | KEY:                  |
                Steve Rubaszek            |                       |
                                          | _ = Palm mute         |
Email:                                    |                       |
                Thrasher502@hotmail.com   | \ = slide             |
                                          |                       |
Version 1.0:                              | x = scrape / noise    |
                April 5, 2006             |                       |
                                          | ph - pinched harmonic |
                                          |_______________________|

Time - 0:00


Intro
|-----------------|-----------------|
|-----------------|-----------------|
|--pick-slide->---|---->----->------|
|-----------------|-----------------|
|-x\x\x\x\x\x\x\x-|-x\x\x\x\x\x\x\x-|
|-x\x\x\x\x\x\x\x-|-x\x\x\x\x\x\x\x-|


Riff 1a x3
|----------------|------------------|----------------|------------------|
|----------------|------------------|----------------|------------------|
|----------------|-------2----------|----------------|------------------|
|-4--4--4--------|-4--4--2------2---|-4--4--4--------|-4--4--4------2---|
|-4--4--4--------|-4--4--0--------2-|-4--4--4--------|-4--4--4--------2-|
|-2--2--2----0-1-|-2--2------2------|-2--2--2----0-1-|-2--2--2----------|
             ___             _                   ___


Riff 1b
|----------------|------------------|----------------|------------------|
|----------------|------------------|----------------|------------------|
|----------------|-------2----------|----------------|------------------|
|-4--4--4--------|-4--4--2------2---|-4--4--4--------|-4--4--5------2---|
|-4--4--4--------|-4--4--0--------2-|-4--4--4--------|-4--4--5--------2-|
|-2--2--2----0-1-|-2--2------2------|-2--2--2----0-1-|-2--2--3----------|
             ___             _                   ___


Riff 1c
|----------------|------------------|----------------|------------------|
|----------------|------------------|----------------|------------------|
|----------------|-------2----------|----------------|------------------|
|-4--4--4--------|-4--4--2------2---|-4--4--4--------|-4--4--5----------|
|-4--4--4--------|-4--4--0--------2-|-4--4--4--------|-4--4--5----------|
|-2--2--2----0-1-|-2--2------2------|-2--2--2----0-1-|-2--2--3----------|
             ___             _                   ___


0:29


Riff 2a x2
|-------------------------------|----------------------------|
|-------------------------------|----------------------------|
|-------------------------------|----------------------5-----|
|-------------------------------|----------------------5-----|
|-------------------------------|----------------------3-----|
|-0--2-2-2-2-2-2-3--2-2-2-2-2-2-|-0--2-2-2-2-2-2-3--2--------|
  ___________________________________________________


|-------------------------------|----------------------------|
|-------------------------------|----------------------------|
|-------------------------------|----------------------------|
|-------------------------------|---------------------4h5p4--|
|-------------------------------|----------------------------|
|-0--2-2-2-2-2-2-3--2-2-2-2-2-2-|-0--2-2-2-2-2-2-3--2--------|
  ___________________________________________________


Riff 1b
|----------------|------------------|----------------|------------------|
|----------------|------------------|----------------|------------------|
|----------------|-------2----------|----------------|------------------|
|-4--4--4--------|-4--4--2------2---|-4--4--4--------|-4--4--4------2---|
|-4--4--4--------|-4--4--0--------2-|-4--4--4--------|-4--4--4--------2-|
|-2--2--2----0-1-|-2--2------2------|-2--2--2----0-1-|-2--2--2----------|
             ___             _                   ___


Riff 1c
|----------------|------------------|----------------|------------------|
|----------------|------------------|----------------|------------------|
|----------------|-------2----------|----------------|------------------|
|-4--4--4--------|-4--4--2------2---|-4--4--4--------|-4--4--5----------|
|-4--4--4--------|-4--4--0--------2-|-4--4--4--------|-4--4--5----------|
|-2--2--2----0-1-|-2--2------2------|-2--2--2----0-1-|-2--2--3----------|
             ___             _                   ___


0:53


Riff 2a x2
|-------------------------------|----------------------------|
|-------------------------------|----------------------------|
|-------------------------------|----------------------5-----|
|-------------------------------|----------------------5-----|
|-------------------------------|----------------------3-----|
|-0--2-2-2-2-2-2-3--2-2-2-2-2-2-|-0--2-2-2-2-2-2-3--2--------|
  ___________________________________________________


|-------------------------------|----------------------------|
|-------------------------------|----------------------------|
|-------------------------------|----------------------------|
|-------------------------------|---------------------4h5p4--|
|-------------------------------|----------------------------|
|-0--2-2-2-2-2-2-3--2-2-2-2-2-2-|-0--2-2-2-2-2-2-3--2--------|
  ___________________________________________________


Riff 3 x2
|-------------------------|-------------------------|
|-------------------------|-------------------------|
|--------------------4----|--------------------5----|
|--------------------4----|--------------------5----|
|--------------------2----|--------------------3----|
|-0--0--0-0-0-0-0-0-------|-0--0--0-0-0-0-0-0-------|
  _________________         _________________


|-------------------------|-------------------------|
|-------------------------|-------------------------|
|-------------------------|--------------------7----|
|--------------------5----|--------------------7----|
|--------------------5----|--------------------5----|
|-0--0--0-0-0-0-0-0--3----|-0--0--0-0-0-0-0-0-------|
  _________________         _________________


1:16


Riff 4 x2
|---------------|------------------|---------------|-------------------|
|---------------|------------------|---------------|-------------------|
|-2--4---4------|-2--4--4--4-------|-2--4---4------|-2--4--6--7----6---|
|-2--4---4------|-2--4--4--4---4---|-2--4---4------|-2--4--6--7----6---|
|-0--2---2------|-0--2--2--2---4---|-0--2---2------|-0--2--4--5----4---|
|---------------|--------------2---|---------------|-------------------|


Riff 2a x2
|-------------------------------|----------------------------|
|-------------------------------|----------------------------|
|-------------------------------|----------------------5-----|
|-------------------------------|----------------------5-----|
|-------------------------------|----------------------3-----|
|-0--2-2-2-2-2-2-3--2-2-2-2-2-2-|-0--2-2-2-2-2-2-3--2--------|
  ___________________________________________________


|-------------------------------|----------------------------|
|-------------------------------|----------------------------|
|-------------------------------|----------------------------|
|-------------------------------|---------------------4h5p4--|
|-------------------------------|----------------------------|
|-0--2-2-2-2-2-2-3--2-2-2-2-2-2-|-0--2-2-2-2-2-2-3--2--------|
  ___________________________________________________



Riff 3 x2
|-------------------------|-------------------------|
|-------------------------|-------------------------|
|--------------------4----|--------------------5----|
|--------------------4----|--------------------5----|
|--------------------2----|--------------------3----|
|-0--0--0-0-0-0-0-0-------|-0--0--0-0-0-0-0-0-------|
  _________________         _________________


|-------------------------|-------------------------|
|-------------------------|-------------------------|
|-------------------------|--------------------7----|
|--------------------5----|--------------------7----|
|--------------------5----|--------------------5----|
|-0--0--0-0-0-0-0-0--3----|-0--0--0-0-0-0-0-0-------|
  _________________         _________________


Riff 4 x2
|---------------|------------------|---------------|-------------------|
|---------------|------------------|---------------|-------------------|
|-2--4---4------|-2--4--4--4-------|-2--4---4------|-2--4--6--7----6---|
|-2--4---4------|-2--4--4--4---4---|-2--4---4------|-2--4--6--7----6---|
|-0--2---2------|-0--2--2--2---4---|-0--2---2------|-0--2--4--5----4---|
|---------------|--------------2---|---------------|-------------------|


2:03 HEY! HEY!


Riff 5 x4
|---------------------------|--------------------------|
|---------------------------|--------------------------|
|----------------------2----|----------------------4---|
|----------------------2----|----------------------4---|
|----------------------0----|----------------------2---|
|-0--2--2-2-2-2--0--2-------|-0--2--2-2-2-2--0--2------|
  _________________         _________________


|---------------------------|--------------------------|
|---------------------------|--------------------------|
|----------------------2----|--------------------------|
|----------------------2----|----------------5----4----|
|----------------------0----|----------------5----4----|
|-0--2--2-2-2-2--0--2-------|-0--2--2-2-2-2--3----2----|
  _________________         _________________


2:27


Riff 6 x2
|--------------------------|--------------------------|
|--------------------------|--------------------------|
|--------------------------|--------------------------|
|----------------------3p2-|----------------3p2--5p-4-|
|-0--2--2-2-2-2--0--2------|-0--2--2-2-2-2------------|
|--------------------------|--------------------------|
  _________________          _____________


|--------------------------|--------------------------|
|--------------------------|---------------------3----|
|--------------------------|---------------------2----|
|----------------------3p2-|---------------------0----|
|-0--2--2-2-2-2--0--2------|-0--2--2-2-2-2--0-2-------|
|--------------------------|--------------------------|
  _________________          __________________


Riff 5 x2
|---------------------------|--------------------------|
|---------------------------|--------------------------|
|----------------------2----|----------------------4---|
|----------------------2----|----------------------4---|
|----------------------0----|----------------------2---|
|-0--2--2-2-2-2--0--2-------|-0--2--2-2-2-2--0--2------|
  ___________________         ___________________


|---------------------------|--------------------------|
|---------------------------|--------------------------|
|----------------------2----|--------------------------|
|----------------------2----|----------------5----4----|
|----------------------0----|----------------5----4----|
|-0--2--2-2-2-2--0--2-------|-0--2--2-2-2-2--3----2----|
  _________________         _________________


2:50


Riff 2a x2
|-------------------------------|----------------------------|
|-------------------------------|----------------------------|
|-------------------------------|----------------------5-----|
|-------------------------------|----------------------5-----|
|-------------------------------|----------------------3-----|
|-0--2-2-2-2-2-2-3--2-2-2-2-2-2-|-0--2-2-2-2-2-2-3--2--------|
  ___________________________________________________


|-------------------------------|----------------------------|
|-------------------------------|----------------------------|
|-------------------------------|----------------------------|
|-------------------------------|---------------------4h5p4--|
|-------------------------------|----------------------------|
|-0--2-2-2-2-2-2-3--2-2-2-2-2-2-|-0--2-2-2-2-2-2-3--2--------|
  ___________________________________________________


Riff 3 x2
|-------------------------|-------------------------|
|-------------------------|-------------------------|
|--------------------4----|--------------------5----|
|--------------------4----|--------------------5----|
|--------------------2----|--------------------3----|
|-0--0--0-0-0-0-0-0-------|-0--0--0-0-0-0-0-0-------|
  _________________         _________________


|-------------------------|-------------------------|
|-------------------------|-------------------------|
|-------------------------|--------------------7----|
|--------------------5----|--------------------7----|
|--------------------5----|--------------------5----|
|-0--0--0-0-0-0-0-0--3----|-0--0--0-0-0-0-0-0-------|
  _________________         _________________


Riff 4 x4
|---------------|------------------|---------------|-------------------|
|---------------|------------------|---------------|-------------------|
|-2--4---4------|-2--4--4--4-------|-2--4---4------|-2--4--6--7----6---|
|-2--4---4------|-2--4--4--4---4---|-2--4---4------|-2--4--6--7----6---|
|-0--2---2------|-0--2--2--2---4---|-0--2---2------|-0--2--4--5----4---|
|---------------|--------------2---|---------------|-------------------|


3:38   SHOCK!


Outro x10
|----------------|------------------|----------------|------------------|
|----------------|------------------|----------------|------------------|
|----------------|-------2----------|----------------|------------------|
|-4--4--4--------|-4--4--2----------|-4--4--4--------|-4--4--5----------|
|-4--4--4--------|-4--4--0----------|-4--4--4--------|-4--4--5----------|
|-2--2--2----0-1-|-2--2------2--2-0-|-2--2--2----0-1-|-2--2--3----------|


END
comments
print report bad tab
I want to post or [tab]
guest
You may want to rate the tab now too:
select rating
Please do not post tabs as comments. Select "correction" instead!