Oops, an error
Loading. Please wait.

Among The Living album tab

version 1
version 1

Album

Whole song

Interactive

by Anthrax
8,040 views 6 this week
no commentswrite comment
1 2 3 4 5
x 5
add to favorites
×
Save as Personal and add changes to this tab that will be seen only by you. Learn more ›
×
You can save this tab as Personal to edit and correct it or add notes. All changes will be seen only by you. Learn more »
launch autoscroll
font size
0
reset
how to read this tab
guitar tuner
backing track
0:00
0:00
edit
Autoscroll
slow
fast
+/-
esc
set tempo
stop
Author
Difficulty
this is not my work

=============================================================================
  	 Among The Living Tab by Anthrax, www.Ultimate-Guitar.Com

Anthrax:  Among The Living

transcribed by:  Russ Elton
based on tab by: Chad O'Donnell (cmodonn@rs6000.cmp.ilstu.edu)

Date last modified: 03/07/02

FIND THE MOST UPDATED VERSION OF THIS SONG AT:

                          Spreading The Disease:
                        The Home For Anthrax Tabs
                   http://www.powerchords.org/anthraxtabs

PLEASE DO NOT COPY THIS TAB TO ANOTHER SITE
WITHOUT AUTHORS' PERMISSION.  THANK YOU

Tuning: Standard

Riff 1 (clean with effects)
Guitar 1
e|-----------0---------------0--|
B|-----------0---------------0--|
G|------------------------------|
D|------------------------------|
A|-----2--1------------2--1-----|
E|--0---------------0-----------|

Guitar 2
e|------------------------------|
B|------------------------------|
G|------------------------------|
D|------------------------------|
A|-----2--1--2---------2--1--1--|
E|--0---------------0-----------|


Riff 2 (distortion)
Guitar 1
e|-----------------------------|
B|-----------------------------|
G|-----------------------------|
D|----4-3--4----------4-3------|
A|-2--2-1--2-----2----2-1--2---|
E|-0-------------0---------0---|

Guitar 2 (comes in after awhile)
e|--------------------------------------12~-|
B|----12-11--12~--12h13-12~-------12-11-----|
G|-9---------------------------9------------|
D|------------------------------------------|
A|------------------------------------------|
E|------------------------------------------|

Guitar 3 (comes in with guitar 2)
e|-----------------------------------|
B|-----------------------------------|
G|--------------------------------9~-|
D|----9-8--9~--9h10-9~-------9--8----|
A|-7----------------------7----------|
E|-----------------------------------|

Riff 3 (last time, leave off last note)
e|----------------------------------------------------|
B|----------------------------------------------------|
G|----------------------------------------------------|
D|----4-3-4--------------------4-3-4--3-3-4-4-3-3-4-4-|
A|-2--2-1-2-----------------2--2-1-2--1-1-2-2-1-1-2-2-|
E|-0--------0-0-0-0-0-0-0-0-0-------------------------|
            * * * * * * * *           * * * * * * * *
e|----------------------------------------------------|
B|----------------------------------------------------|
G|----------------------------------------------------|
D|----4-3-4--------------------4-3-4--3-3-4-4-5-5-6-6-|
A|-2--2-1-2-----------------2--2-1-2--1-1-2-2-3-3-4-4-|
E|-0--------0-0-0-0-0-0-0-0-0-------------------------|
            * * * * * * * *           * * * * * *   *

Riff 4
e|---------------------------------------------------|
B|---------------------------------------------------|
G|---------------------------------------------------|
D|-8----7----7----------------7----8-----------------|
A|-6-7--5-6--5-2------------6-5--7-6--5-2------------|
E|---5----4----0--0-0-0-0-0-4----5----3-0--0-0-0-0-0-|
                  * * * * *                * * * * *
e|----------------------------------------|
B|----------------------------------------|
G|----------------------------------------|
D|-8----7----7----------------7----8------|
A|-6-7--5-6--5-2------------6-5--7-6--5-2-|
E|---5----4----0--0-0-0-0-0-4----5----3-0-|
                  * * * * *


Lead into next section:
e|--------------------------|
B|--------------------------|
G|--------------------------|
D|--------------------------|
A|-1-2----1-2----1-2----1-2-|
E|---0------0------0------0-|


Riff 5                            x3
e|---------------------------------|
B|---------------------------------|
G|---------------------------------|
D|---------------------------------|
A|-5---6---7-------6---7---8-------|
E|-3-0-4-0-5-0-0-0-4-0-5-0-6-0-0-0-|
     *   *   * * *   *   *   * * *
e|--------------------------------|
B|--------------------------------|
G|--------------------------------|
D|--------------------------------|
A|-5---6---7-------6---7---8---9--|
E|-3-0-4-0-5-0-0-0-4-0-5-0-6-0-7--|
     *   *   * * *   *   *   *


Riff 6                            x2
e|---------------------------------|
B|---------------------------------|
G|---------------------------------|
D|-8---------------8---------------|
A|-6-----7-6---2---6-----7-6---2---|
E|---0-0-5-4-0-0-0---0-0-5-4-0-0-0-|
     * *     *   *   * *     *   *
   "Disease, disease..."
                                  x2
e|---------------------------------|
B|---------------------------------|
G|---------------------------------|
D|-7---------------7---------------|
A|-5-----7-6---2---5-----7-6---2---|
E|---0-0-5-4-0-0-0---0-0-5-4-0-0-0-|
     * *     *   *   * *     *   *
   "With some help..."


Riff 5a                       x3
e|-----------------------------|
B|-----------------------------|
G|-----------------------------|
D|-----------------------------|
A|-5--6--7-------6--7--8-------|
E|-3--4--5-0-0-0-4--5--6-0-0-0-|
           * * *         * * *
   "He's seeing, he's calling..."
e|---------------------------|
B|---------------------------|
G|---------------------------|
D|---------------------------|
A|-5--6--7-------6--7--8--9--|
E|-3--4--5-0-0-0-4--5--6--7--|
           * * *
   "Among the living..."


Play Riff 6   "Murder, murder..."


Riff 5b                       x3
e|-----------------------------|
B|-----------------------------|
G|-----------------------------|
D|-----------------------------|
A|-5--6--7-------6--7--8-------|
E|-3--4--5-0-0-0-4--5--6-0-0-0-|
           * * *         * * *
  "He's seeing, he's calling..."
e|-----------------------------|
B|-----------------------------|
G|-----------------------------|
D|-----------------------------|
A|-5--6--7-------6--7--8-8-8-8-|
E|-3--4--5-0-0-0-4--5--6-6-6-6-|
           * * *
  "Among the living..."


Riff 7
e|-----------------------------------------------------|
B|-----------------------------------------------------|
G|-----------------------------------------------------|
D|----4-3--4--------------------4-3-4------------------|
A|-2--2-1--2-----------------2--2-1-2--------3-------3-|
E|-0---------0-0-0-0-0-0-0-0-0---------0-0-2---0-0-2---|
             * * * * * * * *           * *     * *
           "I'm the walking dude..."
e|------------------------------------|
B|------------------------------------|
G|------------------------------------|
D|----4-3--4--------------------4-3-4-|
A|-2--2-1--2-----------------2--2-1-2-|
E|-0---------0-0-0-0-0-0-0-0-0--------|
             * * * * * * * *
           "Twist your minds..."

Riff 8
E|---------------|
B|---------------|
G|---------------|
D|-3-3-4-4-5-5-6-|
A|-1-1-2-2-3-3-4-|
E|---------------|
   * * * * * * *
  "I'm the man with the power..."
e|---------------|
B|---------------|
G|---------------|
D|-8----7----7---|
A|-6-7--5-6--5-2-|
E|---5----4----0-|
  "Among the living..."


Play Riff 6     "Man, fights Man..."
Play Riff 5b    "He's seeing, he's calling..."
Play Riff 7     "I'm the walking dude..."
Play Riff 8  with this extra piece:
e|-------------|
B|-------------|
G|-------------|
D|-8----7------|
A|-6-7--5-6--5-|
E|---5----4--3-|
   "...die..."


Riff 9 (solo rhythm)                                    x2
e|-------------------------------------------------------|
B|-------------------------------------------------------|
G|-------------------------------------------------------|
D|-------------------------------------------------------|
A|--4--4-3--3--3-4--4-2--2--2-4--4-3--3--3-4--4-2--------|
E|--2--2-1--1--1-2--2-0--0--0-2--2-1--1--1-2--2-0--0-0-0-|
                                                   * * *
e|------------------------------------------------------|
B|------------------------------------------------------|
G|------------------------------------------------------|
D|------------------------------------------------------|
A|--7--7-6--6--6-7--7-4--4--4-7--7-6--6--6-7--7-3--3--3-|
E|--5--5-4--4--4-5--5-2--2--2-5--5-4--4--4-5--5-1--1--1-|


Riff 10 (Solo Rhythm)   Last time
e|----------------------|-----|
B|----------------------|-----|
G|----------------------|-----|
D|-----4-3--4-3--4-3--4-|-----|
A|-2---2-1--2-1--2-1--2-|--2--|
E|-0--------------------|--0--|


Play Riff 6     "Fire, hot fire..."
Play Riff 5b    "He's seeeing, he's calling..."
Play Riff 7     "I'm the walking dude..."


Riff 8a
E|---------------|
B|---------------|
G|---------------|
D|-3-3-4-4-5-5-6-|
A|-1-1-2-2-3-3-4-|
E|---------------|
   * * * * * * *
  "I'm the man with the power..."
e|-------------|
B|-------------|
G|-------------|
D|-8----7------|
A|-6-7--5-6--5-|
E|---5----4--3-|
  "Among the living..."


Ending:                x4
e|----------------------|
B|----------------------|
G|----------------------|
D|-----4-3--4-3--4-3--4-|
A|-2---2-1--2-1--2-1--2-|
E|-0--------------------|
  "Among, among, among..."
e|-------------------------|
B|-------------------------|
G|-------------------------|
D|----9-9--9-9--9-9-9---9\-|
A|-2--7-7--7-7--7-7-7---7\-|
E|-0-----------------------|

notation:
^   =  bend [ ^ = half, ^^ = whole, etc. ]
^r  =  bend and release
x   =  mute with fret-hand
*   =  mute with palm-hand
X\\ =  pick slide
h   =  hammer-on
p   =  pull-off
~   =  vibrato
t   =  tap-on
/   =  slide up
\   =  slide down
h.  =  harmonics
ah  =  artificial harmonic
(9) =  ghost note
tm  =  trem picking
tr  =  trill
==========================================================================
Anthrax:  Caught In A Mosh

transcribed by: Russ Elton (anthraxtabs@yahoo.com)

Date last modified: 03/07/02

FIND THE MOST UPDATED VERSION OF THIS SONG AT:

                          Spreading The Disease:
                        The Home For Anthrax Tabs
                   http://www.powerchords.org/anthraxtabs

PLEASE DO NOT COPY THIS TAB TO ANOTHER SITE
WITHOUT AUTHORS' PERMISSION.  THANK YOU

Tuning: Standard

Intro

Guitar 1 (Use upstrokes on the chords)
e|------------------------------------------------------|
B|--3------------3-------------3------------------------|
G|--2------------2-------------2------------2-----------|
D|--0------------0-------------0------------2-----------|
A|--0------------0-------------0------------0-----------|
E|------------------------------------------------------|

e|--------------------------------------------|
B|--3------------3-------------3--------------|
G|--2------------2-------------2--------------|
D|--0------------0-------------0------------2-|
A|--0------------0-------------0------------2-|
E|------------------------------------------0-|

Guitar 2
e|------------------------------------------------------|
B|------------------------------------------------------|
G|------------------------------------------------------|
D|------------------------------------------------------|
A|------------2-2-----------2-2----------2-2--------2-2-|
E|------------0-0-----------0-0----------0-0--------0-0-|
              * *           * *          * *        * *
e|--------------------------------------------|
B|--------------------------------------------|
G|--------------------------------------------|
D|--------------------------------------------|
A|------------2-2-----------2-2----------2-2--|
E|------------0-0-----------0-0----------0-0--|
              * *           * *          * *
End intro


Riff 1
e|--------------------------------|
B|--------------------------------|
G|--------------------------------|
D|--------------------------------|
A|--------------------------------|
E|-0--0-1-0-0-3-0-0-4-0-5-0-6-7-8-|

e|--------------------------------|
B|--------------------------------|
G|--------------------------------|
D|--------------------------------|
A|--------------------------------|
E|-0--0-1-0-0-3-0-0-4-0-5-0-8-7-6-|

Use this ending before the first verse
e|----------------------------------|
B|----------------------------------|
G|----------------------------------|
D|------------------------------9-9-|
A|------------------------------7-7-|
E|-0--0-1-0-0-3-0-0-4-0-5-0-8-7-----|


Riff 2
e|---------------------------------------------|
B|---------------------------------------------|
G|---------------------------------------------|
D|-9--------------------------------------10-9-|
A|-7-----------------------------9-10------8-7-|
E|---0-0-0-0-0-0-0-0-0-0-0-0-0-0-7--8-0-0------|
     * * * * * * * * * * * * * *      * *
   "Why don't you listen..."
e|---------------------|
B|---------------------|
G|---------------------|
D|-----8-9-------------|
A|-----6-7-------------|
E|-0-0-----0-0-0-0-0-0-|
   * *     * * * * * *


Riff 3                                                 x2
e|------------------------------------------------------|-------|
B|------------------------------------------------------|-------|
G|------------------------------------------------------|-------|
D|------------------------------------------------------|-------|
A|-5----4---------------------5-5-4---------------------|--5-5--|
E|-3----2-0-2-0-2-0-2-0-2-0-2-3-3-2-0-2-0-2-0-2-0-2-0-2-|--3-3--|
          * * * * * * * * * *       * * * * * * * * * *
   "Can't stand it for..."


Riff 4
e|----------------|
B|----------------|
G|----------------|
D|-7-----------5--|
A|-5-----3-----3--|
E|-------1--------|
  "Which one of these words..."

Play riff 1    "All caught in a mosh..."
Play riff 4    "Talking to you..."
Play Riff 1    "What is it ?..."
Play Riff 2    "Don't tell me how to..."
Play Riff 3    "Can't stand it for..."
Play Riff 4    "Which one of these words..."
Play Riff 1    "All caught in a mosh..."
Play Riff 4    "Talking to you..."
Play Riff 1    "What is it ?..."


Lead in to riff 5
e|-----------------------------------------|
B|-----------------------------------------|
G|-----------------------------------------|
D|-----------------------------------------|
A|--2------2------2------2---2-2-2-2-2-2-2-|
E|--0----3-0----3-0----3-0---0-0-0-0-0-0-0-|
         *      *      *

Riff 5
e|----------------------------------------------|
B|----------------------------------------------|
G|----------------------------------------------|
D|--------9\-5----------------------------------|
A|-2------7\-3------4---------------5-----7--7\-|
E|-0----------------2---2-2-2-2-2-2-3-3-3-5-----|
                        * * * * * *   * *
    "Think, before you speak..."


Lead in to next riff
e|--------------------------------------|
B|--------------------------------------|
G|--------------------------------------|
D|--------------------------------------|
A|-2------------------------------------|
E|-0-0-0-0-0-0-0-0-0-...--0000000000000-|
     * * * * * * * *      *************

Riff 6 (solo rhythm)        x8
e|---------------------------|
B|---------------------------|
G|---------------------------|
D|---------------------------|
A|-4---------------------5-5-|
E|-2-0-2-0-2-0-2-0-2-0-2-3-3-|
     * * * * * * * * * *


Riff 7 (Solo Rhythm)
e|----------------------------------|
B|----------------------------------|
G|----------------------------------|
D|----------------------------------|
A|-2---5-----5-----5-----5-----5-4--|
E|-0-0-3-0-0-3-0-0-3-0-0-3-0-0-3-2--|
     *   * *   * *   * *   * *
e|---------------------------------|
B|---------------------------------|
G|---------------------------------|
D|------------------------------4--|
A|-----5-----5-----5-----5------2--|
E|-0-0-3-0-0-3-0-0-3-0-0-3-0-0-----|
   * *   * *   * *   * *   * *
e|----------------------------------|
B|----------------------------------|
G|----------------------------------|
D|----------------------------------|
A|-----5-----5-----5-----5-----5-4--|
E|-0-0-3-0-0-3-0-0-3-0-0-3-0-0-3-2--|
   * *   * *   * *   * *   * *
e|---------------------------------|
B|---------------------------------|
G|---------------------------------|
D|------------------------------4--|
A|-----5-----5-----5-----5------2--|
E|-0-0-3-0-0-3-0-0-3-0-0-3-0-0-----|
   * *   * *   * *   * *   * *


Riff 8 (Solo Rhythm)
e|--------------------------------------------|
B|--------------------------------------------|
G|--------------------------------------------|
D|---------7\5--------------------------------|
A|-2-------5\3-------4---------5-------7----9-|
E|-0---0-0-------0-0-2-----0-0-3-----0-5--0-7-|
       * *       * *       * *       *    *

Play riff 1
Play riff 2     "Hey man..."
Play riff 3     "Can't stand it..."
Play riff 4     "Which one of these words..."
Play Riff 1     "All caught in a mosh..."
Play Riff 4     "Talking to you..."
Play Riff 1     "What is it ?..."

Ending
e|----------------------------------|
B|----------------------------------|
G|----------------------------------|
D|----------------------9-9-9-9-----|
A|-2--5--2-----8-9-10---7-7-7-7-10\-|
E|-0--3--0-----6-7--8------------8\-|
  "...mosh..."


notation:
^   =  bend [ ^ = half, ^^ = whole, etc. ]
^r  =  bend and release
x   =  mute with fret-hand
*   =  mute with palm-hand
X\\ =  pick slide
h   =  hammer-on
p   =  pull-off
~   =  vibrato
t   =  tap-on
/   =  slide up
\   =  slide down
h.  =  harmonics
ah  =  artificial harmonic
(9) =  ghost note
tm  =  trem picking
tr  =  trill
===========================================================================
  	 I Am The Law Tab by Anthrax, www.Ultimate-Guitar.Com

notation:
^   =  bend [ ^ = half, ^^ = whole, etc. ]
^r  =  bend and release
x   =  mute with fret-hand
*   =  mute with palm-hand
X\\ =  pick slide
h   =  hammer-on
p   =  pull-off
~   =  vibrato
t   =  tap-on
/   =  slide up
\   =  slide down
h.  =  harmonics
ah  =  artificial harmonic
(9) =  ghost note
tm  =  trem picking
tr  =  trill


Tuning: Standard

Riff 1 (chorus)
e|---------------------------|
B|---------------------------|
G|---------------------------|
D|-------4-------------------|
A|----2--2-5-----/7-5-4-5--2-|
E|-00-0----3--33-/5-3-2-3--0-|
                    * * *

Riff 2                        x2
e|-----------------------------|
B|-----------------------------|
G|-----------------------------|
D|-----------------------------|
A|----------5----------------5-|
E|-3-0-33-0-3-------3-0-33-0-3-|
   * * ** *         * * ** *

Riff 3
e|---------------------------------------|
B|---------------------------------------|
G|---------------------------------------|
D|---------------------------------------|
A|-----------------------------------5/8-|
E|-3-0-33-0--3-0-33-0--3-0-33-0--3-0-3/6-|
   * * ** *  * * ** *  * * ** *  * *


Play riff 2


Riff 4 (verse)
e|----------------------------|
B|----------------------------|
G|----------------------------|
D|----------------------------|
A|-----------5------4---3---2-|
E|-3-0-33-0--3--3-2-2-1-1-0-0-|
   * * ** *     * *   *   *
            "Fifteen years..."
e|----------------------------|
B|----------------------------|
G|----------------------------|
D|----------------------------|
A|-----------5------2---2---2-|
E|-3-0-33-0--3--3-0-0-0-0-0-0-|
   * * ** *     * *   *   *
            "He was like..."


Play riff 3   "DROKK IT"
Play riff 4   "With his gun and bike..."


Riff 3a
e|---------------------------------------|
B|---------------------------------------|
G|---------------------------------------|
D|---------------------------------------|
A|-----------------------------------5/8-|
E|-3-0-33-0--3-0-33-0--3-0-33-0--3-0-3/6-|
   * * ** *  * * ** *  * * ** *  * *
                                "DROKK IT"
e|------------------------------|
B|------------------------------|
G|------------------------------|
D|------------------------------|
A|----------------------7-5-4-5-|
E|-3-0-33-0--3-0-33-00--5-3-2-3-|
   * * ** *  * * ** **  * * * *


Play riff 1   "Respect the badge..."


Riff 5                                               x2
e|----------------------------------------------------|----------|
B|----------------------------------------------------|----------|
G|----------------------------------------------------|----------|
D|-------4/5-4-2------10-9---------4/5-4-2-------9-10-|--9-9-9-9-|
A|-2-----2/3-2-0-3-----8-7---2-----2/3-2-0-3-----7--8-|--7-7-7-7-|
E|-0-0-0---------1--0--------0-0-0---------1--0-------|----------|
     * *            *          * *            *
    "I am the law..."                                  "I am the law."


Play riff 4    "In the cursed earth..."
Play riff 3a
Play riff 1    "Respect the badge..."
Play riff 5    "I am the law..."


Riff 6
e|----------------------------------------|
B|----------------------------------------|
G|----------------------------------------|
D|-7-6-5------------------7-5-6-----------|
A|-5-4-3------------------5-3-4-5-5-5-5-5-|
E|-------333333333333...--------3-3-3-3-3-|
         ************

Riff 6a
e|--------------------------|
B|--------------------------|
G|--------------------------|
D|--------------------------|
A|-5-4-3--------5-3-4-5-5-5-|
E|-------333333-------3-3-3-|
         ******       * * *

Riff 7
e|--------------------------|
B|--------------------------|
G|--------------------------|
D|--------------------------|
A|-3-2-1--------3-1-2-3-3-3-|
E|-------111111-------1-1-1-|
         ******       * * *
   "Crime..."


Riff 8 (solo rhythm)
e|---------------------------------|
B|---------------------------------|
G|---------------------------------|
D|-4-------5-------6---------------|
A|-2-------3-------4---------------|
E|---2-2-2---2-2-2---3-3-3-3-3-3-3-|
     * * *   * * *   * * * * * * *


Play riff 7    Solo Rhythm
Play riff 6a


Riff 6b
e|--------------------------------|
B|--------------------------------|
G|--------------------------------|
D|-7--6--5---------7--5--6--------|
A|-5--4--3--5-5-5--5--3--4--5-5-5-|
E|----------3-3-3-----------3-3-3-|
            * * *           * * *
   "Oh..."


Riff 7a
e|--------------------------------|
B|--------------------------------|
G|--------------------------------|
D|-5--4--3---------5--3--4--------|
A|-3--2--1--3-3-3--3--1--2--3-3-3-|
E|----------1-1-1-----------1-1-1-|
            * * *           * * *
   "Crime..."


Riff 9      x5
e|-----------|--------------------|
B|-----------|--------------------|
G|-----------|--------------------|
D|-----------|--------------------|
A|-----------|------------7-5-4-5-|
E|-3-0-33-0--|-3-0-33-00--5-3-2-3-|
   * * ** *    * * ** **  * * * *


Play riff 1    "Respect the badge..."


Riff 5a
e|----------------------------------------------------|
B|----------------------------------------------------|
G|----------------------------------------------------|
D|-------4/5-4-2------10-9---------4/5-4-2-------9-10-|
A|-2-----2/3-2-0-3-----8-7---2-----2/3-2-0-3-----7--8-|
E|-0-0-0---------1--0--------0-0-0---------1--0-------|
     * *            *          * *            *
   "I am the law..."

Ending
            x5
e|-----------|----------------------|
B|-----------|----------------------|
G|-----------|----------------------|
D|-----------|----------------------|
A|-----------|------------7-5-4-5-2-|
E|-3-0-33-0--|-3-0-33-00--5-3-2-3-0-|
   * * ** *    * * ** **  * * * *
   "I ..... am ..... the ..... law!"


And thats it
============================================================================
Anthrax:  Efilnikufesin (N.F.L)

transcribed by: Russ Elton (anthraxtabs@yahoo.com)

Date last modified: 03/07/02

FIND THE MOST UPDATED VERSION OF THIS SONG AT:

                          Spreading The Disease:
                        The Home For Anthrax Tabs
                   http://www.powerchords.org/anthraxtabs

PLEASE DO NOT COPY THIS TAB TO ANOTHER SITE
WITHOUT AUTHORS' PERMISSION.  THANK YOU

Tuning: Standard

Riff 1

Guitar 1
e|------------------------------------------|
B|------------------------------------------|
G|------------------------------------------|
D|------------------------------------------|
A|-5-6-7-5-6-7-------5-6-7-5-6-7------------|
E|-------------0-----------------6-(6)6^r~~-|

Guitar 2
e|------------------------------------------|
B|------------------------------------------|
G|------------------------------------------|
D|-4-5-6-4-5-6-------4-5-6-4-5-6------------|
A|------------------------------------------|
E|-------------0-----------------6-(6)6^r~~-|


Riff 2
e|---------------------------------|
B|---------------------------------|
G|---------------------------------|
D|---------------------------------|
A|---------------------------------|
E|-3-4-5-3-4-5-0-0-0-0-0-0-0-0-0-0-|
   * * * * * * * * * * * * * * * *
e|---------------------------------|
B|---------------------------------|
G|---------------------------------|
D|---------------------------------|
A|---------------------------------|
E|-3-4-5-3-4-5-4-4-4-4-4-4-4-4-4-4-|
   * * * * * * * * * * * * * * * *


Riff 3
e|---------------------------------|
B|---------------------------------|
G|---------------------------------|
D|---------------------------------|
A|-5-6-7-5-6-7-2-------------------|
E|-------------0-0-0-0-0-0-0-0-0-0-|
                 * * * * * * * * *
e|---------------------------------|
B|---------------------------------|
G|---------------------------------|
D|---------------------------------|
A|-5-6-7-5-6-7-8-------------------|
E|-------------6-6-6-6-6-6-6-6-6-6-|
                 * * * * * * * * *


Play Riff 1


Riff 2a
e|---------------------------------|
B|---------------------------------|
G|---------------------------------|
D|---------------------------------|
A|-------------2-------------2-----|
E|-3-4-5-3-4-5-0-0-0-0-0-0-0-0-0-0-|
   * * * * * *   * * * * * *   * *
   "It started back..."
e|---------------------------------|
B|---------------------------------|
G|---------------------------------|
D|---------------------------------|
A|-------------6-------------6-----|
E|-3-4-5-3-4-5-4-4-4-4-4-4-4-4-4-4-|
   * * * * * *   * * * * * *   * *
   "So cool..."


Riff 4
e|-----------------------------------------------|
B|-----------------------------------------------|
G|-----------------------------------------------|
D|--------------5------5-------------7-----------|
A|-2------4--5--3------3---7------5--5--2------2-|
E|-0--0-0-2--3-----0-0-----5--0-0-3-----0--0-0-0-|
      * *          * *        * *          * *
   "Wasting your life..."
e|--------------------------------------------------------|
B|--------------------------------------------------------|
G|--------------------------------------------------------|
D|--------------5------5----------------------------------|
A|-2------4--5--3------3---7------5--4--2---------------2-|
E|-0--0-0-2--3-----0-0-----5--0-0-3--2--0-0-0-0-0-0-0-0-0-|
      * *          * *        * *         * * * * * * *
   "Dancing on your grave..."


Riff 5
e|---------------------------------------------------------|
B|---------------------------------------------------------|
G|---------------------------------------------------------|
D|---------------------------------------------------------|
A|-3-4-4\3---------------------6-7-7\6---------------------|
E|-1-2-2\1-1-1-1-1-1-1-1-1-1-1-4-5-5\4-4-4-4-4-4-6-(6)^r~~-|
           * * * * * * * * * *         * * * * *
  "N F L..."


Play Riff 1
Play Riff 2a   "The whole world..."
Play Riff 4    "Wasting your life..."
Play Riff 5    "N F L..."


Lead in to riff 6:
Both guitars
e|----------------------------------|
B|----------------------------------|
G|----------------------------------|
D|--------------2-1---2-1---2-1-----|
A|-5-6-7-5-6-7--2-1---2-1---2-1-----|
E|------------------0-----0-----0-0-|
                    *     *     * *
Guitar 1
e|--------------------------------------------------------------|
B|--------------------------------------------------------------|
G|--------------------------7-9-10~~----------------------------|
D|--------------------6-7-9-------------------------------------|
A|-5-6-7-5-6-7--5-7-8-------------------------------------------|
E|--------------------------------------------------------------|

Guitar 2
e|--------------------------------------------------------------|
B|--------------------------------------------------------------|
G|--------------------------------------------------------------|
D|--------------------6-7-9-------------------------------------|
A|-5-6-7-5-6-7--5-7-8-----------2-----2-----2-----2-----2---2---|
E|------------------------------0-0-0-0-0-0-0-0-0-0-0-0-0-0-0-0-|
                                  * *   * *   * *   * *   *   *

Riff 6
e|----------------------------------|
B|----------------------------------|
G|----------------------------------|
D|--------------2-1---2-1---2-1-----|
A|-5-6-7-5-6-7--2-1---2-1---2-1-----|
E|------------------0-----0-----0-0-|
                    *     *     * *
e|-----------------------------------|
B|-----------------------------------|
G|--------------------------7-9-10\--|
D|--------------------6-7-9----------|
A|-5-6-7-5-6-7--5-7-8----------------|
E|-----------------------------------|


Riff 7 (solo rhythm)
e|----------------------------------|
B|----------------------------------|
G|----------------------------------|
D|--------------2-1---2-1---2-1-----|
A|-5-6-7-5-6-7--2-1---2-1---2-1-----|
E|------------------0-----0-----0-0-|
                    *     *     * *
e|----------------------------------|
B|----------------------------------|
G|----------------------------------|
D|--------------7-6---7-6---7-6-----|
A|-5-6-7-5-6-7--7-6---7-6---7-6-----|
E|------------------0-----0-----0-0-|
                    *     *     * *

Play Riff 1
Play Riff 2a   "You lived a life..."
Play Riff 4    "Wasting your life..."
Play Riff 5    "N F L..."

Ending
Both guitars
e|----------------------------------|
B|----------------------------------|
G|----------------------------------|
D|--------------2-1---2-1---2-1-----|
A|-5-6-7-5-6-7--2-1---2-1---2-1-----|
E|------------------0-----0-----0-0-|
                    *     *     * *

Guitar 1
e|--------------------------------------------------------------|
B|--------------------------------------------------------------|
G|--------------------------7-9-10~~----------------------------|
D|--------------------6-7-9-------------------------------------|
A|-5-6-7-5-6-7--5-7-8-------------------------------------------|
E|--------------------------------------------------------------|

Guitar 2
e|--------------------------------------------------------------|
B|--------------------------------------------------------------|
G|--------------------------------------------------------------|
D|--------------------6-7-9-------------------------------------|
A|-5-6-7-5-6-7--5-7-8-----------2-----2-----2-----2-----2---2---|
E|------------------------------0-0-0-0-0-0-0-0-0-0-0-0-0-0-0-0-|
                                  * *   * *   * *   * *   *   *

Both guitars
e|--------------|
B|--------------|
G|--------------|
D|-9-9-----9-9\-|
A|-7-7-----7-7\-|
E|--------------|


notation:
^   =  bend [ ^ = half, ^^ = whole, etc. ]
^r  =  bend and release
x   =  mute with fret-hand
*   =  mute with palm-hand
X\\ =  pick slide
h   =  hammer-on
p   =  pull-off
~   =  vibrato
t   =  tap-on
/   =  slide up
\   =  slide down
h.  =  harmonics
ah  =  artificial harmonic
(9) =  ghost note
tm  =  trem picking
tr  =  trill
===========================================================================
ANTHRAX - A SKELETON IN THE CLOSET
Among The Living, 1987

Key
= after note = vibrato
^ after note = heavy vibrato
 = slide down
/ = slide up
+ = tap
h = hammer
p = pull
n = natural harmonic
s = pinching harmonic (squeal)
* = tremolo pick
t = trill
b = bend

n number above the tab = play the first part then the first finishing part
    play the first part a second time and then play the second finishing part

Riff 1

E ---------------------------------|
B ---------------------------------|
G ---------------------------------|
D -4-4-4-4-5-5-5-5-3-3-3-3-6-6-6-6-|
A -4-4-4-4-5-5-5-5-3-3-3-3-6-6-6-6-|
E -2-2-2-2-3-3-3-3-1-1-1-1-4-4-4-4-|

Riff 2

E -----------------------------------------|
B -----------------------------------------|
G -----------------------------------------|
D -----------------------------------------|
A -----------------------------------------|
E -00-0-00-0-00-0-00-0-00-0-00-0-00-0-00-0-|

Riff 3

E --------------------------------------------------------------------------|
B --------------------------------------------------------------------------|
G --------------------------------------------------------------------------|
D --------------------------------------------------------------------------|
A --------------------------------------------------------------------------|
E -00-0-00-0-00-0-00-0-00-0-00-0-00-0-00-0-00-0-00-0-00-0-00-0-00-0-00-0-00-|

E0-00-0-

E -----------------------------|
B -----------------------------|
G ---------------------------5-|
D -5--5--5-------5--5--5-----5-| x 2
A -5--5--5-------5--5--5-----3-|
E -3--3--3-1-0-1-3--3--3-0-1---|

Riff 4

E ----------------------------------------------------------|
B ----------------------------------------------------------|
G ----------------------------------------------------------|
D -2--------------------------------------------------------|
A -2--------------------------------------------------------|
E -0----------------00-0-00-0-00-0-00-0-00-0-00-0-00-0-00-0-|

E -----------------------------|
B -----------------------------|
G ---------------------------5-|
D -5--5--5-------5--5--5-----5-| x 2
A -5--5--5-------5--5--5-----3-|
E -3--3--3-1-0-1-3--3--3-0-1---|

Riff 5
		1,2,3	      4
E ------------- ------------- ---------------|
B ------------- ------------- ---------------|
G -------4--3-- ------------- ---------------|
D -2--4--4--3-- ---4-----4--- ---4-----4-----|
A -2--4--2--1-- ---4-----4--- ---4-----4-1-2-|
E -0--2-------- -0-2---0-2--- -0-2---0-2-----|

Riff 5A

E -------------------------|
B -------------------------|
G -------4--3--------------|
D -2--4--4--3----4-----4---|
A -2--4--2--1----4-----4---|
E -0--2--------0-2---0-2---|

Riff 6

E -----------------------------------------------------------------|
B -----------------------------------------------------------------|
G -------------------------------------------------3-3-3-3-3-3-----|
D -----2-2-2-2---------7-7-7-7---------------------3-3-3-3-3-3-----|
A -----2-2-2-2-1-2-----7-7-7-7-1-2-----1-2-----1-2-1-1-1-1-1-1-1-2-|
E -3-0-0-0-0-0-----3-5-5-5-5-5-----3-0-----3-0---------------------|

Riff 7

E ---------------------------------|
B ---------------------------------|
G ---------------------------------|
D -9-9-9-9-8-8-8-8-5-5-5-5-2-2-2-2-|
A -9-9-9-9-8-8-8-8-5-5-5-5-2-2-2-2-|
E -7-7-7-7-6-6-6-6-3-3-3-3-0-0-0-0-|

Riff 7A
		    1,2,3	      4
E ------------ --------------- --------------------------------------------|
B ------------ --------------- --------------------------------------------|
G ------------ --------------- --------------------------------------------|
D -9----8----- -5-----2------- -5------------------------------------------|
A -9----8----- -5-----2------- -5------------------------------------------|
E -7-0-0-0-6-0-0-0- -3-0-0-0-0-0-0-0- -3-0-0-0-00-0-00-0-00-0-00-0-00-0-00-|

E-0-00-0-00-0-

Riff 8

E ---------------------------------------------|
B ---------------------------------------------|
G ---------------------------------------------|
D ---------------------------------------------|
A ---------------------------------------------|
E -22-22-33-33-11-11-44-44-00-0-00-0-00-0-00-0-|

Riff 8A

E -------------|
B -------------|
G -------------|
D -4--5--3--6--|
A -4--5--3--6--|
E -2--3--1--4--|

Riff 8B

E ---------------------------------|
B ---------------------------------|
G ---------------------------------|
D ---------------------------------|
A ---------------------------------|
E -2-3-1-4-2-3-1-4-2-3-1-4-2-3-1-4-|

Order

Riff 1 x 4
Riff 2 x 2
Riff 3 x 2
Riff 4 x 2
Riff 5 x 1
Riff 6 x 2
Riff 2 x 2
Riff 3 x 1
Riff 4 x 4
Riff 5 x 1
Riff 6 x 4
Solo over Riff 7 x 4
Solo over Riff 7A x 1
Riff 2 x 1
Riff 8 x 4
Riff 8A x 4
Riff 8B x 1
Riff 2 x 2
Riff 3 x
Riff 4 x 4
Riff 5 x 1
Riff 6 x 6
Riff 5A x 4
 ENJOY!

=]

=========================================================================
  	 Indians Tab by Anthrax, www.Ultimate-Guitar.Com

notation:
^   =  bend [ ^ = half, ^^ = whole, etc. ]
^r  =  bend and release
x   =  mute with fret-hand
*   =  mute with palm-hand
X\\ =  pick slide
h   =  hammer-on
p   =  pull-off
~   =  vibrato
t   =  tap-on
/   =  slide up
\   =  slide down
h.  =  harmonics
ah  =  artificial harmonic
(9) =  ghost note
tm  =  trem picking
tr  =  trill


Tuning: Standard

Riff 1

Guitar 1        x2               x2
e|---------------|----------------|
B|---------------|----------------|
G|-------4h5-4~~-|--------6h7-6~~-|
D|-/7-5~---------|--/9-7~---------|
A|---------------|----------------|
E|---------------|----------------|

Guitar 2        x2               x2
e|---------------|----------------|
B|-------5h6-5~~-|--------7h8-7~~-|
G|-/5-4~---------|--/7-6~---------|
D|---------------|----------------|
A|---------------|----------------|
E|---------------|----------------|


Riff 2

Guitar 1          x4                x2                x2
e|-----------------|-----------------|-----------------|
B|-----------------|-----------------|-----------------|
G|-----------------|-----------------|-----------------|
D|-----------------|--4--2--4-2------|-----------------|
A|--7--5--7-5-2-2--|--2--0--2-0-4-4--|--7--5--7-5-2-2--|
E|--5--3--5-3-0-0--|------------2-2--|--5--3--5-3-0-0--|

Guitar 2          x4                x2                x2
e|-----------------|-----------------|-----------------|
B|-----------------|-----------------|-----------------|
G|-----------------|-----------------|-----------------|
D|-7--5~-7p5-------|-9--7~-9p7-------|-7--5~-7p5-------|
A|-----------7-7~~-|-----------9-9~~-|-----------7-7~~-|
E|-----------------|-----------------|-----------------|

Guitar 3          x4                x2                x2
e|-----------------|-----------------|-----------------|
B|-----------------|-----------------|-----------------|
G|-5--4~-5p4-------|-7--6~-7p6-------|-5--4~-5p4-------|
D|-----------5-5~~-|-----------7-7~~-|-----------5-5~~-|
A|-----------------|-----------------|-----------------|
E|-----------------|-----------------|-----------------|


Riff 3                                                    x2
e|---------------------------------------------------------|
B|---------------------------------------------------------|
G|---------------------------------------------------------|
D|-----10-9------------------------10-9--------------------|
A|-7-6--8-7--------------------7-6--8-7--------------------|
E|-5-4------0-0-0-0-0-0-0-...--5-4------000000000000000...-|
            * * * * * * *               ***************
Riff 3a
e|---------------------------------------------------------|
B|---------------------------------------------------------|
G|---------------------------------------------------------|
D|-----10-9-9-9-9-9-9-9-9----------------------------------|
A|-7-6--8-7-7-7-7-7-7-7-7-------------------------------7\-|
E|-5-4--------------------0-3-0-3-0-3-0-3-0-4-0-4-0-5-0-5\-|
                          * * * * * * * * * * * * * * *


Riff 4
e|------------------------------------------------------|
B|------------------------------------------------------|
G|------------------------------------------------------|
D|------------------------------------------------------|
A|-5-----5-----5-------4-5-4--5-----5-----5-------4-2-4-|
E|-3-0-0-3-0-0-3-0-0-0-2-3-2--3-0-0-3-0-0-3-0-0-0-2-0-2-|
     * *   * *   * * *          * *   * *   * * *

Riff 4b
e|-----------------|
B|-----------------|
G|-----------------|
D|-----------------|
A|-----------------|
E|-0-3-0-3-0-3-0-3-|
   * * * * * * * *


Play Riff 4   "We all see in black and white..."

Riff 4a
e|------------------------------------------------|
B|------------------------------------------------|
G|------------------------------------------------|
D|------------------------------------------------|
A|-5-----5-----5-------4-5-4--5-----5-----5-------|
E|-3-0-0-3-0-0-3-0-0-0-2-3-2--3-0-0-3-0-0-3-0-0-0-|
     * *   * *   * * *          * *   * *   * * *
   "Apathy can never solve..."


Play Riff 3   "Forced out..."

Riff 3b
e|--------|
B|--------|
G|--------|
D|-----10-|
A|-7-6--8-|
E|-5-4----|
  "...we're dissin' them..."


Riff 5
e|----------------------------|
B|----------------------------|
G|----------------------------|
D|-----9-----9-----9-7-----10-|
A|-----7-----7-----7-5-9--8-8-|
E|-0-0---0-0---0-0-----7--6---|
   * *   * *   * *
e|------------------------------|
B|------------------------------|
G|------------------------------|
D|-----9-----9-----9-7----12-11-|
A|-----7-----7-----7-5-9--10--9-|
E|-0-0---0-0---0-0-----7--------|
   * *   * *   * *
  "On reservations..."


Play Riff 4b
Play Riff 4   "Respect is something..."
Play Riff 4a  "Turned into..."
Play Riff 3   "Forced out..."
Play Riff 3b  "...we're dissin' them..."
Play Riff 5   "On reservations..."
Play Riff 4b


Riff 6
e|------------------------------------------------------|
B|------------------------------------------------------|
G|------------------------------------------------------|
D|-9--9--9-9-7------------------------------------------|
A|-7--7--7-7-5--9-9--9\-8-------------------------------|
E|--------------7-7--7\-6-6-6-6-6-6-6-6-6-6-5-5-3-3-1-1-|
                          * * * * * * * * * * * * * * *
    "Cry for the Indians..."
e|----------------------------------------|
B|----------------------------------------|
G|----------------------------------------|
D|-9--9--9-9-7----------------------------|
A|-7--7--7-7-5--9-9--9\-8---------------8-|
E|--------------7-7--7\-6-6-6-6-6-6-6-6-6-|
                          * * * * * * *
    "Die for the Indians..."


Play Riff 4b
Play Riff 4   "Love the land..."
Play Riff 4a  "Hatred and prejudice..."
Play Riff 3   "Forced out..."
Play Riff 3b  "...we're dissin' them..."
Play Riff 5   "On reservations..."
Play Riff 4b
Play Riff 6   "Cry for the Indians..."

Riff 7
e|---------------------------------|
B|---------------------------------|
G|---------------------------------|
D|-----------------------5-4-8-7---|
A|-5-2-----2---------5-4-3-2-6-5-8-|
E|-3-0-0-0-0-0-0-000-3-2---------6-|
       * *   * * *** * *

Riff 7a
e|---------------------------------|
B|---------------------------------|
G|---------------------------------|
D|-----------------------5-4-8-7---|
A|-5-2-----2---------5-4-3-2-6-5-8-|
E|-3-0-0-0-0-0-0-000-3-2---------6-|
       * *   * * *** * * * * * * *
   "Territory..."


Riff 8 (solo rhythm)
e|-------------------------------|
B|-------------------------------|
G|-------------------------------|
D|-------------------------------|
A|-5---------6---5---5-4-3-2-3-4-|
E|-3-0-0-0-0-4-0-3-0-3-2-1-0-1-2-|
     * * * *   *   *


Riff 9 (Solo Rhythm) x2
e|--------------------|
B|--------------------|
G|--------------------|
D|-----7---9-7--------|
A|--2--5---7-5-9-9----|
E|--0----------7-7----|
                            x2
e|---------------------------|
B|---------------------------|
G|---------------------------|
D|--------7------9-7---------|
A|--2-----5-5-5--7-5-9-9-----|
E|--0-0-0------------7-7-7-7-|
      * *   * *          * *

Play Riff 4   "We all see in black and white..."
Play Riff 4a  "Apathy can never..."
Play Riff 3   "Forced out..."
Play Riff 3b  "...we're dissin' them..."
Play Riff 5   "On reservations..."
Play Riff 4b
Play Riff 6   "Cry for the Indians..."

Ending             x3
e|------------------|
B|------------------|
G|------------------|
D|--9--7---9-7------|
A|--7--5---7-5-9-9--|
E|--7----------7-7--|

e|------------------|
B|------------------|
G|------------------|
D|--9--7---9-7---9\-|
A|--7--5---7-5-9-7\-|
E|--7----------7-7\-|
===========================================================================
  	 One World Tab by Anthrax, www.Ultimate-Guitar.Com

Anthrax:  One World

transcribed by: Russ Elton (anthraxtabs@yahoo.com)
with help from: Brian Van Maurik (bmvst7@pitt.edu)

        ________________________________________________
       |                                                |
       |            Spreading The Disease:              |
       |           The Home of Anthrax Tabs             |
       |                                                |
       |      http://www.geocities.com/anthraxtabs/     |
       |                                                |
       |________________________________________________|

Date last modified: 11/18/00

PLEASE DO NOT COPY THIS TAB TO ANOTHER SITE
WITHOUT AUTHORS' PERMISSION.  THANK YOU

Tuning: Standard

Riff 1                        x2
e|-----------------------------|
B|-----------------------------|
G|-----------------------------|
D|--7-10--7--9-----------------|
A|--5--8--5--7---------7-7-7-7-|
E|-----------------------------|
                       * * * *

Riff 2          x4
e|---------------|
B|---------------|
G|---------------|
D|--7-10--7--9---|
A|--5--8--5--7---|
E|---------------|

Riff 3 (Didn't get the harmony guitar yet)
e|-------------------------------|
B|-------------------------------|
G|--------------9h10-9~~---------|
D|-7-10--7--9------------6h7-6~~-|
A|-5--8--5--7--------------------|
E|-------------------------------|

Riff 4
e|--------------------------|
B|--------------------------|
G|--------------------------|
D|-7-10--7--9---8---7---6---|
A|-5--8--5--7---6---5---4---|
E|--------------------------|

Riff 5
e|--------------------------------------------------|
B|--------------------------------------------------|
G|--------------------------------------------------|
D|----------------------------------------------8-7-|
A|---------8-8---------7-7---------6-6----------6-5-|
E|-300-300-6-6-300-300-5-5-300-300-4-4-30003000-----|
   *** ***     *** ***     *** ***     ********

Riff 6
e|-------------------------------------------------|
B|-------------------------------------------------|
G|-------------------------------------------------|
D|---------------------------------------------8-7-|
A|---------8-8---------7-7---------6-6---------6-5-|
E|-3-0-3-0-6-6-0-0-0-0-5-5-3-3-3-3-4-4-3-0-3-0-----|
   * * * *     * * * *     * * * *     * * * *

Riff 7
e|-----------------------------|
B|-----------------------------|
G|-----------------------------|
D|-----------------------------|
A|----------5---5------------5-|
E|-8760-0-0-3-0-3-8760-0-0-0-3-|
   **** * *       **** * * *

Riff 8
e|-----------------------------------|
B|-----------------------------------|
G|-----------------------------------|
D|-------------------------9---9---9-|
A|-2---------5---6---7-----7---7---7-|
E|-0-0-0-0-0-3-0-4-0-5-0-0---0---0---|
     * * * *   *   *   * *   *   *
e|--------------------------------|
B|--------------------------------|
G|--------------------------------|
D|-----------------------7-10-7-9-|
A|---------5---6---7-----5--8-5-7-|
E|-0-0-0-0-3-0-4-0-5-0-0----------|
   * * * *   *   *   * *
e|---------------------------------|
B|---------------------------------|
G|---------------------------------|
D|-----------------------9---9---9-|
A|---------5---6---7-----7---7---7-|
E|-0-0-0-0-3-0-4-0-5-0-0---0---0---|
   * * * *   *   *   * *   *   *
e|-----------------------|
B|-----------------------|
G|-----------------------|
D|-----------------------|
A|---------5---6---7-----|
E|-0-0-0-0-3-0-4-0-5-0-0-|
   * * * *   *   *   * *

Play Riff 2
Play Riff 5
Play Riff 6
Play Riff 7
Play Riff 8
Play Riff 2

Riff 9
e|--------------------------------------|
B|--------------------------------------|
G|--------------------------------------|
D|-7--9--7--9\-------7--9--7--12\-------|
A|-5--7--5--7\--2-2--5--7--5--10\--2-2--|
E|--------------0-0----------------0-0--|

e|------------------------------------------|
B|------------------------------------------|
G|------------------------------------------|
D|-7--9--7--9\------------------------------|
A|-5--7--5--7\--7--9--7--9\--5-6-7--8\--2-2-|
E|--------------5--7--5--7\--3-4-5--6\--0-0-|


Riff 8a (solo rhythm)             x3
e|---------------------------------|
B|---------------------------------|
G|---------------------------------|
D|-----------------------9---9---9-|
A|---------5---6---7-----7---7---7-|
E|-0-0-0-0-3-0-4-0-5-0-0---0---0---|
   * * * *   *   *   * *   *   *
e|--------------------------------|
B|--------------------------------|
G|--------------------------------|
D|-----------------------7-10-7-9-|
A|---------5---6---7-----5--8-5-7-|
E|-0-0-0-0-3-0-4-0-5-0-0----------|
   * * * *   *   *   * *          x3
e|---------------------------------|
B|---------------------------------|
G|---------------------------------|
D|-----------------------9---9---9-|
A|---------5---6---7-----7---7---7-|
E|-0-0-0-0-3-0-4-0-5-0-0---0---0---|
   * * * *   *   *   * *   *   *
e|-----------------------|
B|-----------------------|
G|-----------------------|
D|-----------------------|
A|---------5---6---7-----|
E|-0-0-0-0-3-0-4-0-5-0-0-|
   * * * *   *   *   * *

Play Riff 2
Play Riff 5
Play Riff 6
Play Riff 7
Play Riff 8
Play Riff 2

Riff 4a
e|---------------------|
B|---------------------|
G|---------------------|
D|-7-10--7--9---8---7--|
A|-5--8--5--7---6---5--|
E|---------------------|


Riff 10
e|----------------------------------|
B|----------------------------------|
G|----------------------------------|
D|-7-10--7--9-------8-------7-------|
A|-5--8--5--7-------6-------5-------|
E|------------0-0-0---0-0-0---0-0-0-|
              * * *   * * *   * * *

Ending
e|-------------|
B|-------------|
G|-------------|
D|-7-10--7--9\-|
A|-5--8--5--7\-|
E|-------------|


notation:
^   =  bend [ ^ = half, ^^ = whole, etc. ]
^r  =  bend and release
x   =  mute with fret-hand
*   =  mute with palm-hand
X\\ =  pick slide
h   =  hammer-on
p   =  pull-off
~   =  vibrato
t   =  tap-on
/   =  slide up
\   =  slide down
h.  =  harmonics
ah  =  artificial harmonic
(9) =  ghost note
tm  =  trem picking
tr  =  trill

============================================================================
Band: Anthrax
Song: Adi Horror Of It Al
Tabber:We_Wont_Die

Tuning: EADGBe

Key: / Slide
     x Mute/Palm Mute

Riff 1 (Clean)
|------------------------------------|
|-3-3---3------3---------3---3-----3-|
|-1---1-2--1/2----2-1-0----1---1/2-0-|
|-0-----0--------------------------0-|
|-0-----0--------------------------0-|
|------------------------------------|

|-----------------------|
|-3-3---3------3------3-|
|-1---1-2--1/2----2-1-0-|
|-0-----0-------------0-|
|-0-----0-------------0-|
|-----------------------|

Riff 2 (Clean)
|---5-------------------------------|
|-----6--------3-3--------------3-3-|
|-------5----0---2------------2---1-|
|-0--------3-----3--3-2h3p2-0-----0-|
|----------------0----------------0-|
|-----------------------------------|

|---5-------------------------------|
|-----6--------3-3--------------3-3-|
|-------5----0---2------------1---2-|
|-0--------2-----3--3-2h3p2-0-----0-|
|----------------0----------------0-|
|-----------------------------------|

|---5-------------------------------|
|-----6--------3-3--------------3-3-|
|-------5----0---2------------2---1-|
|-0--------3-----3--3-2h3p2-0-----0-|
|----------------0----------------0-|
|-----------------------------------|

|---5--------------------------------------------|
|-----6----------3----3------------------3-----3-|
|-------5-----0------2----------------1-------2--|
|-0--------2--------3------3-2h3p2-0---------0---|
|------------------0------------------------0----|
|------------------------------------------------|

Riff 3 (Distorted)
|---------------------------------|
|---------------------------------|
|---------------------------------|
|-7-----7-------------------------|
|-5-----5-------------------------|
|---0-0---0-0-0-0-0-0-0-0-0-0-0-0-|
     x x   x x x x x x x x x x x x

|---------------------------------|
|---------------------------------|
|---------------------------------|
|-7-----7----------7-6-5--3-4-7-6-|
|-5-----5-------55-5-4-3--1-2-5-4-|
|---0-0---0-0-0-------------------|
     x x   x x x

Riff 4 (Distorted)
|---------------------------------|
|---------------------------------|
|---------------------------------|
|-3/4-------------3/4-------------|
|-1/2-------------1/2-------------|
|-----0-0-0-0-0-0-----0-0-0-0-0-0-|
       x x x x x x     x x x x x x

|---------------------------------|
|---------------------------------|
|---------------------------------|
|-3/4-----3/4-----3/4-------------|
|-1/2-----1/2-----1/2-------------|
|-----0-0-----0-0-----3-3-3-3-3-3-|
       x x     x x

|-------------------------|
|-------------------------|
|-------------------------|
|-3/4-----3/4-----3/4-----|
|-1/2-----1/2-----1/2-----|
|-----0-0-----0-0-----0-0-|
       x x     x x     x x

Riff 5 (Distorted)
|-------------------------------|
|-------------------------------|
|-------------------------------|
|-3/4------------3/4------------|
|-1/2---5--------1/2---5--------|
|-----0-3----0-0-----0-3----0-0-|
       x      x x     x      x x

|--------------------------------------------|
|--------------------------------------------|
|----------7--6--5---------------7--6--5-----|
|-3/4-------------------3/4------------------|
|-1/2---5--5--4--3------1/2---5--5--4--3-----|
|-----0-3-----------0-0-----0-3----------0-0-|
       x             x x     x            x x

|--------------------------------------------------|
|--------------------------------------------------|
|----------7--6--5---------------7--6--5-----------|
|-3/4-------------------3/4------------------3/4-3-|
|-1/2---5--5--4--3------1/2---5--5--4--3-----1/2-1-|
|-----0-3-----------0-0-----0-3----------0-0-------|
       x             x x     x            x x

Riff 6 (Distorted)
|-------------------------------|
|-------------------------------|
|-------------------------------|
|-4-------3---------------------|
|-2-2-----1-2-----5-----3--3----|
|---0-0-0---0-0-0-3-0-0-1--1--0-|
       x x     x x   x x       x

Riff 3 Pt.1 (Distorted)
|---------------------------------|
|---------------------------------|
|---------------------------------|
|-7-----7-------------------------|
|-5-----5-------------------------|
|---0-0---0-0-0-0-0-0-0-0-0-0-0-0-|
     x x   x x x x x x x x x x x x

|---------------------------------|
|---------------------------------|
|---------------------------------|
|-7-----7----------7-6-5--3-4-7-6-|
|-5-----5-------55-5-4-3--1-2-5-4-|
|---0-0---0-0-0-------------------|
     x x   x x x

Riff 5 Pt.1 (Distorted)
|--------------------------------------|
|--------------------------------------|
|----7--6--5---------------7--6--5-----|
|-----------------3/4------------------|
|-5--5--4--3------1/2---5--5--4--3-----|
|-3-----------0-0-----0-3----------0-0-|
               x x     x            x x

|--------------------------------------------------|
|--------------------------------------------------|
|----------7--6--5---------------7--6--5-----------|
|-3/4-------------------3/4------------------3/4-3-|
|-1/2---5--5--4--3------1/2---5--5--4--3-----1/2-1-|
|-----0-3-----------0-0-----0-3----------0-0-------|
       x             x x     x            x x

Riff 7 (Distorted)
|-------------------------------------|
|-------------------------------------|
|-------------------------------------|
|--------------------------------3----|
|-5----4--4--4--4--2----4--4--4--1--3-|
|-3----2--2--2--2--0----2--2--2-----1-|

|--------------------------------|
|--------------------------------|
|--------------------------------|
|---------------------------3----|
|-4--4--4--4--2----4--4--4--1--3-|
|-2--2--2--2--0----2--2--2-----1-|

Riff 7 Pt.1 (Distorted)
|--------------------------------|
|--------------------------------|
|--------------------------------|
|--------------------------------|
|-----4-----4-----4-----4-----2--|
|-0-0-2-0-0-2-0-0-2-0-0-2-0-0-0--|
   x x   x x   x x   x x   x x

|-----------------------------|
|-----------------------------|
|-----------------------------|
|-----------------------3-----|
|-----4-----4-----4-----1--3--|
|-0-0-2-0-0-2-0-0-2-0-0----1--|
   x x   x x   x x   x x

Riff 7 Pt.2 (Distorted)
|--------------------------------|
|--------------------------------|
|--------------------------------|
|--------------------------------|
|-----4-----4-----4-----4-----2--|
|-0-0-2-0-0-2-0-0-2-0-0-2-0-0-0--|
   x x   x x   x x   x x   x x

|-----------------------------|
|-----------------------------|
|-----------------------------|
|-----------------------3-----|
|-----4-----4-----4-----1--3--|
|-0-0-2-0-0-2-0-0-2-0-0----1--|
   x x   x x   x x   x x

|--------------------------|
|--------------------------|
|--------------------------|
|--------------------------|
|-----4-----4-----4--------|
|-0-0-2-0-0-2-0-0-2-0-0-0--|
   x x   x x   x x   x x x

Riff 5 Pt.2 (Distorted)
|-------------------------------|
|-------------------------------|
|-------------------------------|
|-3/4------------3/4------------|
|-1/2---5--------1/2---5--------|
|-----0-3----0-0-----0-3----0-0-|
       x      x x     x      x x

|-----------------------------------------------------|
|-----------------------------------------------------|
|-----------------------------------------------------|
|-3/4------------3/4----------------------------------|
|-1/2---5--------1/2---5------------------------------|
|-----0-3----0-0-----0-3--3-3-3-3-3-3-3-3-3-3-3-3-3-3-|
       x      x x     x    x x x x x x x x x x x x x x

Riff 8 (Distorted)
|--------------------------------|
|--------------------------------|
|--------------------------------|
|--------------------------------|
|-5--------6-------5-------------|
|-3--3-6-3---3-6-3---3-6-3-6-6-6-|
      x x x   x x x   x x x x x x
|--------------------------------|
|--------------------------------|
|--------------------------------|
|--------------------------------|
|-5--------6-------5---------3-3-|
|-3--3-6-3---3-6-3---3-6-3-6-----|
      x x x   x x x   x x x x

Riff 9 (Distorted)
|--------------------------------|
|--------------------------------|
|--------------------------------|
|--------------------------------|
|-5------------------------------|
|-3--3-3-3-3-3-3-3-3-3-3-3-6-6-6-|
      x x x x x x x x x x x

|--------------------------------|
|--------------------------------|
|--------------------------------|
|--------------------------------|
|-5------------------------3-3-3-|
|-3--3-3-3-3-3-3-3-3-3-3-3-------|
      x x x x x x x x x x x

Riff 5 Pt.3 (Distorted)
|---------------------------------|
|---------------------------------|
|---------------------------------|
|----------3/4------------3/4-----|
|-5--------1/2---5--------1/2---5-|
|-3----0-0-----0-3----0-0-----0-3-|
        x x     x      x x     x

|--------------------|
|--------------------|
|--------------------|
|-----3/4------------|
|-----1/2---5--------|
|-0-0-----0-3----0-0-|
   x x     x      x x

|--------------------------------------------|
|--------------------------------------------|
|----------7--6--5---------------7--6--5-----|
|-3/4-------------------3/4------------------|
|-1/2---5--5--4--3------1/2---5--5--4--3-----|
|-----0-3-----------0-0-----0-3----------0-0-|
       x             x x     x            x x

|--------------------------------------------------|
|--------------------------------------------------|
|----------7--6--5---------------7--6--5-----------|
|-3/4-------------------3/4------------------3/4---|
|-1/2---5--5--4--3------1/2---5--5--4--3-----1/2---|
|-----0-3-----------0-0-----0-3----------0-0-----0-|
       x             x x     x            x x     x

Riff 6 (Distorted)
|-------------------------------------------------------------|
|-------------------------------------------------------------|
|-------------------------------------------------------------|
|---4-------3-------------------------------------------------|
|---2-2-----1-2-----5-----3-3-----3-3-----3-3-----------------|
|-0---0-0-0---0-0-0-3-0-0-1-1--xx-1-1--xx-1-1-----------------|
   x     x x     x x   x x
============================================================================
imitation Of Life Tab by Anthrax, www.Ultimate-Guitar.Com

|---------------------------------------|
|----------------------------------h-p--|
|---7--------6---------9-------7--6-7-6-|
|---0-0-0-0--0-0-0-0-0-0-0-0-0-0--------|
|---------------------------------------|
|---------------------------------------|


|-----------------------------------|
|-----------------------------------|
|-----------------------------------|
|--7--------6---------9-------4-4-4-|
|--0-0-0-0--0-0-0-0-0-0-0-0-0-0-0-0-|
|-----------------------------------|


 rythem 1                           end 1
|-------------------|--------------------|
|-------------------|--------------------|
|---------------4---|------------------4-|
|--4-4-5-2-4-4--4-5-|-4-4-5-2-4-4------4-|
|--4-4-5-2-4-4--2-5-|-4-4-5-2-4-4------2-|
|--2-2-3-0-2-2----3-|-2-2-3-0-2-2-2-3----|


verse w/ rythem 1

	There's nothing I hate more than All the plastic
people
	With all their plastic promises and all their plastic
deals
        They just can't be themselves and live their
own lives out
        They're just an imatation of what life's all
about


|--------|--------------------------|
|--------|--------------------------|
|-(4)----|-4--4--4--4--4-4--4-4-4-4-|
|-(4)----|-4--4--4--4--4-4--4-4-4-4-|
|-(2)----|-2--2--2--2--2-2--2-2-2-2-|
|--------|--------------------------|

   Rhy2
||------------------------|---------------------------------|
||------------------------|---------------------------------|
||-o---5-4----------------|---------------------------------|
||-o---3-2----4-3---------|---------------------------------|
||------------2-1----3-2--|---------------------------------|
||----------0-----0--1-0--|-0--0---0-0-0-0-0-0-0-0-0-0-0-0--|

                                                   End
2   3x
|---------------------|----------------------------------||
|---------------------|----------------------------------||
|--5-4----------------|--------------------------------o-||
|--3-2---4-3----------|--------------------------------o-||
|--------2-1-----4-5--|----------------------------------||
|------0------0--2-3--|-3--3--3-3-3-3-3-3-3-3-3-3-3-3----||

|---------------------|---------------------------------|
|---------------------|---------------------------------|
|--5-4----------------|---------------------------------|
|--3-2----4-3---------|---------------------------------|
|---------2-1----3-2--|---------------------------------|
|-------0-----0--1-0--|-0--0---0-0-0-0-0-0-0-0-0-0-0-0--|

|---------------------|----------|
|---------------------|----------|
|--5-4----------------|----------|
|--3-2---4-3----------|----------|
|--------2-1-----4-5--|----------|
|------0------0--2-3--|----------|

verse 2 w/ rythem 2


	Because of me, you are who you are
	sign your name and you'll go far
	I'm your freind I think you should
	So sign your name, its for your own good
	HOW MANY TIMES HAVE YOU HEARD YOU HEARD TODAY?
	Some bogus piss on saying "let's do lunch babe."
        For them this bullshit, that's their whole
life
        cut with the bullshit with a knife
                                     (imatation of
life)

						4x
||----------------------|-------------------------||
||----------------------|-------------------------||
||-o--------------------|-----------------------o-||
||-o--7-----------------|-7---------------------o-||
||----7-----------------|-7-----------------------||
||----5-5-5-5-5-5-5-5-5-|-5--5-5-5-5-5-5-5-5-5----||

    wo-------------       oh-----------------|
    oh---------------------------------------|
   An----------------------ger    -----------|
   burns-------------------------------------|


  verse 3. w/rhythem 2

	What ever happened to the guy I knew?
	A media creation a monster grew
	Our story had unhappy end
	But this could change, I still call him freind
	"take my advice listen to me"
	A great opportinity can't you see?
	I only want what's best for you
        The deal of a life time what more can I do
	HOW MANY TIMES HAVE YOU HEARD YOU HEARD TODAY?
	Some bogus piss on saying "let's do lunch babe."
        For them this bullshit, that's their whole
life
        cut with the bullshit with a knife
                                     (imatation of
life)


						4x
||----------------------|-------------------------||
||----------------------|-------------------------||
||-o--------------------|-----------------------o-||
||-o--7-----------------|-7---------------------o-||
||----7-----------------|-7-----------------------||
||----5-5-5-5-5-5-5-5-5-|-5--5-5-5-5-5-5-5-5-5----||

    wo-------------       oh-----------------|
    oh---------------------------------------|
   An----------------------ger    -----------|
   burns-------------------------------------|

verse 3. W/rythem 2

	bands dress like women with hairspray and lace
	I'd pass an image law stick it in ther face
	Let's see how long they keep dressing this way
	Wearin this image twenty four hours a day

							4x
||----------------------------|----------------------------||
||----------------------------|----------------------------||
||-o--------------------------|--------------4--5--------o-||
||-o--9--9--9--9--9--9--9--9--|--9--9--9--9--2--3--4--5--o-||
||----7--7--7--7--7--7--7--7--|--7--7--7--7--------2--3----||
||----0--0--0--0--0--0--0--0--|--0--0--0--0----------------||

	1.
	2. Did you ever think for yourself?
	3.Just once did you ever think
	4 That's all I wanna know


							  8x
||--------------------------|----------------------------------||
||--------------------------|----------------------------------||
||-o--10--9-----8--7--------|-10---9-----12---11---12----11--o-||
||-o--10--9-----8--7--------|-10---9-----12---11---12----11--o-||
||----8---7-----6--5--------|-8----7-----10---9----10----9-----||
||--------------------1-1-1-|----------------------------------||


      5. IMITATION OF LIFE,  Living out a lie
	 you'll never be right, imitation of life
         Why are we here you're taking up my space
	 The new imperfect race, imitation of life


  w/ solo							8x
||--------------------------|----------------------------------||
||--------------------------|----------------------------------||
||-o--10--9-----8--7--------|-10---9-----12---11---12----11--o-||
||-o--10--9-----8--7--------|-10---9-----12---11---12----11--o-||
||----8---7-----6--5--------|-8----7-----10---9----10----9-----||
||--------------------1-1-1-|----------------------------------||


						4x
||----------------------|-------------------------||
||----------------------|-------------------------||
||-o--------------------|-----------------------o-||
||-o--7-----------------|-7---------------------o-||
||----7-----------------|-7-----------------------||
||----5-5-5-5-5-5-5-5-5-|-5--5-5-5-5-5-5-5-5-5----||

    wo-------------       oh-----------------|
    oh---------------------------------------|
   An----------------------ger    -----------|
   burns-------------------------------------|


  verse 3. w/rhythem 2

	What ever happened to the guy I knew?
	A media creation a monster grew
	Our story had unhappy end
	Theres one thing I hate more
	than all the platic people
	With alll their plastic promises
	And all their plastic deals
	they just can't be themselves
	and live their ouw lives out
	They just an imitation
        of what life's all about

	IMITATION OF LIFE


					 3x
||--------------------|----------------------||
||--------------------|----------------------||
||-o--------------4---|------------------4-o-||
||-o-4-4-5-2-4-4--4-5-|-4-4-5-2-4-4------4-o-||
||---4-4-5-2-4-4--2-5-|-4-4-5-2-4-4------2---||
||---2-2-3-0-2-2----3-|-2-2-3-0-2-2-2-3------||

|-----------------------------|------//--------|
|-----------------------------|-----///--------|
|--------------------------4--|-(4)///---------|
|-4--4--5--2--4--4---------4--|-(4)//----------|
|-4--4--5--2--4--4---------2--|-(2)/-----------|
|-2--2--3--0--2--2--2--3------|----------------|
				*slide out  :)
=========================================================================

            
            
Suggest correction
Creating personal tab
Creating personal tab
You can edit any tab online and save it as your Personal.

You can edit, replace or remove any tab part or add personal notes – all changes will be seen only by you.

Personal tabs can be accessed anytime from any device, even offline.
Learn more »
comments
print report bad tab
guest
You may want to rate the tab now too:
select rating
Wanna post a correction for this tab? Suggest correction