Oops, an error
Loading. Please wait.

Anthrax Tab

3,876 views 3 this week
1 commentread comment
1 2 3 4 5
excellent!
x 3
add to favorites
launch autoscroll
font size
0
reset
how to read this tab
guitar tuner
Tab Pro tools
  • play this tab
  • loop segment
  • change instrument
  • show fretboard
  • metronome
×
Best way to learn
"Anthrax"
Autoscroll
slow
fast
+/-
esc
set tempo
stop
Contributor
There's a song called "Anthrax" it's track 8 of Fistful of Metal (1984) so please don`t 
this tab


Riff 1
e|-----------------------|
B|-----------------------|
G|-----------------------|
D|-----------------------|
A|-2-----2-----2-----2-4-|
E|-0-0-0-0-0-0-0-0-0-0-2-|
     * *   * *   * *
e|---------------------|
B|---------------------|
G|---------------------|
D|-3-----3-----3-------|
A|-1-1-1-1-1-1-1---1---|
E|---------------2---2-|
     * *   * *

Final time
e|-----------------------|
B|-----------------------|
G|-----------------------|
D|-3-----3-----3---------|
A|-1-1-1-1-1-1-1---1---2-|
E|---------------2---2-0-|
     * *   * *


Riff 2
e|------------------------------------------------------|
B|------------------------------------------------------|
G|------------------------------------------------------|
D|-9------------9------------9------------9-9-9-9-9-9-9-|
A|-7-7777777777-7-7777777777-7-7777777777-7-7-7-7-7-7-7-|
E|------------------------------------------------------|
     **********   **********   **********
e|---------------------------------------------|
B|---------------------------------------------|
G|---------------------------------------------|
D|-5----5-5-5-5----5-5-5-5----5-5-5-5----5-5-5-|
A|-3----3-3-3-3----3-3-3-3----3-3-3-3----3-3-3-|
E|---------------------------------------------|

e|---------------------------------------------------------|
B|---------------------------------------------------------|
G|---------------------------------------------------------|
D|-4----------------9----9-9-9-9----9-9-9-9----9-9-9-9-9-9-|
A|-2-2222222222...--7----7-7-7-7----7-7-7-7----7-7-7-7-7-7-|
E|---------------------------------------------------------|
     **********


Riff 3
Guitar 1
e|---------------------------------|
B|---------------------------------|
G|---------------------------------|
D|-2--2------------2--2------------|
A|-0--0------------0--0------------|
E|-------2-0-0-2-3-------2-0-0-2-3-|
         * * * * *       * * * * *
    "Steel shattered..."
e|----------------------------|
B|----------------------------|
G|----------------------------|
D|-2--2--------------4--5-5-4-|
A|-0--0------------0-2--3-3-2-|
E|-------2-0-0-2-3------------|
         * * * * *
    "...in the night..."

Guitar 2
e|---------------------------------|
B|---------------------------------|
G|---------------------------------|
D|-2--2--4-2-2-4-5-2--2--4-2-2-4-5-|
A|-0--0------------0--0------------|
E|---------------------------------|
         * * * * *       * * * * *
e|----------------------------|
B|----------------------------|
G|----------------------------|
D|-2--2--4-2-2-4-5---4--5-5-4-|
A|-0--0------------0-2--3-3-2-|
E|----------------------------|
         * * * * *


Riff 4
e|---------------------------|
B|---------------------------|
G|---------------------------|
D|----------------------5--4-|
A|-4--------------------3--2-|
E|-2--2-2-2-2-2-2-2-2-2------|
      * * * * * * * * *
   "It's just..."
e|---------------------------|
B|---------------------------|
G|---------------------------|
D|----------------------7--6-|
A|-4--------------------5--4-|
E|-2--2-2-2-2-2-2-2-2-2------|
      * * * * * * * * *
   "For those..."


Play Riff 3   "Blood painted..."
Play Riff 4   "You can feel the power..."


Riff 5
e|------------------------------|
B|------------------------------|
G|------------------------------|
D|-7--7-7-7-7-7-7-7-7-7-7--9--8-|
A|-0--0-0-0-0-0-0-0-0-0-0--7--6-|
E|------------------------------|
    "We better..."
e|-------------------------------|
B|-------------------------------|
G|-------------------------------|
D|-7--7-7-7-7-7-7-7-7-7-7--10--9-|
A|-0--0-0-0-0-0-0-0-0-0-0---8--7-|
E|-------------------------------|
    "There's no time..."


Riff 6 (Solo Rhythm) x2
e|--------------------|
B|--------------------|
G|--------------------|
D|--2----7---------2--|
A|--0----5----5----0--|
E|------------3-------|
                    x2
e|-------------------|
B|-------------------|
G|-------------------|
D|-4----9----2----4--|
A|-2----7----0----2--|
E|-------------------|


Riff 7                                   x2
e|----------------------------------------|
B|----------------------------------------|
G|----------------------------------------|
D|-14----------12----------10------9------|
A|-12-12121212-10-10101010--8-8888-7-7777-|
E|----------------------------------------|
       * * * *     * * * *    ****   ****
                              x2
e|-----------------------------|
B|-----------------------------|
G|-----------------------------|
D|-9------7------5------4------|
A|-7-7777-5-5555-3-3333-2-2222-|
E|-----------------------------|
     ****   ****   ****   ****           x2
e|----------------------------------------|
B|----------------------------------------|
G|----------------------------------------|
D|-14----------12----------10------9------|
A|-12-12121212-10-10101010--8-8888-7-7777-|
E|----------------------------------------|
       * * * *     * * * *    ****   ****
e|-----------------------------|
B|-----------------------------|
G|-----------------------------|
D|-9------7------5------4------|
A|-7-7777-5-5555-3-3333-2-2222-|
E|-----------------------------|
     ****   ****   ****   ****
e|-----------------------------|
B|-----------------------------|
G|-----------------------------|
D|-9------7------5------2------|
A|-7-7777-5-5555-3-3333-0-0000-|
E|-----------------------------|
     ****   ****   ****   ****


Riff 8
e|---------------------------------------|
B|---------------------------------------|
G|---------------------------------------|
D|-4-----4---------------4-----4---/5----|
A|-2-2-2-2----2-2-3p2p0--2-2-2-2---/3--5-|
E|-------------------------------------3-|
     * *                   * *
e|---------------------------------------|
B|---------------------------------------|
G|---------------------------------------|
D|-4-----4---------------4-----4---/5--7-|
A|-2-2-2-2----2-2-3p2p0--2-2-2-2---/3--5-|
E|---------------------------------------|
     * *                   * *


Play Riff 1   Solo Rhythm

Ending                                   x2
e|----------------------------------------|
B|----------------------------------------|
G|----------------------------------------|
D|-14----------12----------10------9------|
A|-12-12121212-10-10101010--8-8888-7-7777-|
E|----------------------------------------|
       * * * *     * * * *    ****   ****
                              x2
e|-----------------------------|
B|-----------------------------|
G|-----------------------------|
D|-9------7------5------4------|
A|-7-7777-5-5555-3-3333-2-2222-|
E|-----------------------------|
     ****   ****   ****   ****
e|---------|
B|---------|
G|---------|
D|-2----2--|
A|-0----0--|
E|---------|
comments
We did not receive enough feedback on this tab! Please rate:
print report bad tab
1 2 3 4 5
1 comment total.
0 reply
retrotimelord wrote on March 10 2015, 05:29 am, edited on April 2 2015, 01:18 am

fwiaaaaaaaaaaaaaaaaaaaaaaaaaaaaaaaaaaaaaaeiafaweif iffwejfw w faweaifjwpooeifj wpfiej awpoefij wapf ijjawp fijawpo ijaw pfijawpp ijweppf iajwpoeifjawpoeifj apwoeifj wafnawieufbawifw no it's correct good tab!

I want to post or [tab]
guest
You may want to rate the tab now too:
select rating
Please do not post tabs as comments. Select "correction" instead!