Oops, an error
Loading. Please wait.

Be All End All bass

version 1
version 1

Whole song

Interactive

by Anthrax
2,976 views 3 this week
1 commentread comment
1 2 3 4 5
1 last vote to show rating
add to favorites
×
Save as Personal and add changes to this tab that will be seen only by you. Learn more ›
×
You can save this tab as Personal to edit and correct it or add notes. All changes will be seen only by you. Learn more »
launch autoscroll
font size
0
reset
guitar tuner
backing track
0:00
0:00
edit
Autoscroll
slow
fast
+/-
esc
set tempo
stop
Author
Difficulty
ARTIST:ANTHRAX.
SONG:BE ALL END ALL.
ALBUM:THE GREATER OF TWO EVILS.
TUNNING:E.A.D.G.
TAB:LOPEZ017.


Riff 
G|-----------------------------------------------|
D|-----------------------------------------------|
A|-5-4--5-4-2-4-5-4--5-4-2-4-5-4--5-4-2-4-6-7----|
E|-----------------------------------------------|

Riff 2

G|------------------------------------|
D|------------------------------------|
A|------------------------------------|
E|-0-0-0-0--0-0-0-0--0-0-0-0--0-0-0-0-| 
   * * * *  * * * *  * * * *  * * * * 
   "Yes, no, yes, no..."


Riff 3                            x2
G|---------------------------------|
D|---------------------------------|
A|-------------------------------|
E|-65-5-5-5-5-5-5-65-5-5-3/5-5-5-|
       * * * * * *     * *     * *    
  "Not, another word..."
                             x
G|----------------------------|
D|----------------------------|
A|-----------------------0----|
E|-1-0-0-0-0-0-0-0-1--0-----0-|
       * * * * * * 
  "Right..."


Riff 4
G|---------------------------------|
D|---------------------------------|
A|-------------3-2-2---------------|
E|-3-0-0-0-1-0-----0-0-0-0-0-0-0-0-|
     * * *   *       * * * * * * * 
  "Stand up..."


RIff 5
G|------------------------------------|
D|------------------------------------|
A|------------5-7-----------------5-7-|
E|-1-0----1-0-----1-0-0-0-0-0-1-0-----|
                      * * * * 
   "Down by..."
G|----------------------|
D|----------------------|
A|------------5-7-------|
E|-1-0----1-0------3--2-|
   "...hold on to your..."


Riff 6
G|---------------------------------|
D|---------------------------------|
A|---------------------------------|
E|-1-1-1-1-3-3-3-3-6-5-5-5-6-5-5-5-|
   * * * * * * * *     * *     * * 
   "Nothing's ever..."
G|--------------------------|
D|--------------------------|
A|--------------------------|
E|-1-1-1-1-3-3-3-3-6-5--6-5-|
   * * * * * * * * 
   "All you can do..."


Play Riff 1   "Be all..."
Play Riff 3   "Think..."
Play Riff 4   "Stand up..."
Play Riff 5   "Down by..."
Play Riff 6   "Nothing's ever easy..."
Play Riff 1   "Be all..."
Play Riff 2


Riff 4a                         x4
G|-------------------------------|
D|-------------------------------|
A|-------------3-2----------8--7-|
E|-3-0-0-0-1-0-----0-0-0-0-------|
     * * *   *       * * *         x3
G|----------------------------------|
D|----------------------------------|
A|---------------3-2-----------8--7-|
E|-33333333-1111-----00000000-------|
   ******** ****     ********
   "Always taking...
G|-----------------------------------------------|
D|-----------------------------------------------|
A|---------------3-2---8--7---8--7---8--7---8--7-|
E|-33333333-1111---------------------------------|
   ******** ****
   "Ignorance..."


Riff 7                             x2
G|---------------------------------|
D|---------------------------------|
A|--87-5/7-------------7--5/7------|
E|----------0-0-0-0-0-0--------0-0-|
            * * * * * *        * 
G|------------------------------------|
D|------------------------------------|
A|--87-5/7-------------7--5/7--10---9-|
E|---------0-0-0-0-0-0---------10---9-|
            * * * * * *

RIff 5a
G|------------------------------------|
D|------------------------------------|
A|------------0-2-3-2-------------0-2-|
E|-1-0----1-0-----1-0-0-0-0-0-1-0-----|
                      * * * *
G|----------------------|
D|----------------------|
A|--------------2-------|
E|-1-0----1-0------3--2-|


Riff 8 
G|-----------------------------------|
D|-----------------------------------|
A|------------0-2------------0-2-----|
E|-1-0----1-0-----1-0----1-0-----1-0-|
 
G|---------------|
D|---------------|
A|-----0-2-------|
E|-1-0------3--2-|


Play Riff 1   "Be all..."


Ending
G|----------------------------------------|
D|----------------------------------------|
A|----------------------------------------|
E|-6-5--6-5-3-5-6-5--6-5-3-5-6-5--6-5-3-5-|
   "Be all...
G|---------------------|
D|---------------------|
A|---------------------|
E|--8--7--3--5----8--7-|
   "...euphoria..."

guitar fade out
Suggest correction
Creating personal tab
Creating personal tab
You can edit any tab online and save it as your Personal.

You can edit, replace or remove any tab part or add personal notes – all changes will be seen only by you.

Personal tabs can be accessed anytime from any device, even offline.
Learn more »
Give kudos to tab author, rate the tab!
1 2 3 4 5
comments
print report bad tab
1 comment total.
+1 reply
scorpion9199 10 Jul 01, 2010 08:06 AM

I would go with 7-6 instead of 6-7 on the first riff.

guest
You may want to rate the tab now too:
select rating
Wanna post a correction for this tab? Suggest correction