Oops, an error
Loading. Please wait.

Be All End All bass

version 2
version 2

Whole song

Interactive

by Anthrax
19 views 1 this week
no commentswrite comment
1 2 3 4 5
3 more votes to show rating
add to favorites
×
Save as Personal and add changes to this tab that will be seen only by you. Learn more ›
×
You can save this tab as Personal to edit and correct it or add notes. All changes will be seen only by you. Learn more »
launch autoscroll
font size
0
reset
guitar tuner
backing track
0:00
0:00
edit
Autoscroll
slow
fast
+/-
esc
set tempo
stop
[Intro]
G|---------------------------------|
D|---------------------------------| 
A|-5-5-5-5-5-5-5-5-5-5-5-5-5-5-5-5-| (7x) (Octave lower effect + Phaser)
E|---------------------------------|

G|---------------------------------|
D|---------------------------------| 
A|---------------------------------| 
E|-1~--------------0~--------------|

[Chorus]
G|---------------------------|
D|---------------------------| 
A|-6--5~-0-5-5-5-6--5--3--5--| (3x)
E|---------------------------|

G|------------------------------------|
D|-----10---10---10~------7-8-7-5-----| 
A|-8-8----8----8------7-7---------8-7-| 
E|------------------------------------|

G|---------------------------|
D|---------------------------| 
A|-6--5~-0-5-5-5-6--5--3--5--| (3x)
E|---------------------------|

G|-----------------------------------|
D|-----10---10---10~------9---9---9~-| 
A|-8-8----8----8------7-7---7---7----| 
E|-----------------------------------|

Pause

[Verse]
G|---------------------------------|
D|-8-7-7-7-7-7-7-7-8-7-7-7-5-7-7-7-| 
A|---------------------------------| (2x) 
E|---------------------------------|

G|---------------------------------|
D|---------------------------------| 
A|-8-7-7-7-7-7-7-7-8---7---5---7---| (2x) 
E|---------------------------------|

G|---------------------------------|
D|-8-7-7-7-7-7-7-7-8-7-7-7-5-7-7-7-| 
A|---------------------------------| (2x) 
E|---------------------------------|

G|---------------------------------|
D|---------------------------------| 
A|-8-7-7-7-7-7-7-7-8---7---5---7---| (2x)
E|---------------------------------|

G|---------------------------------|
D|---------------------------------| 
A|-------------3-2-----------------|(4x) 
E|-3-0-0-0-1-0-----0-0-0-0-0-0-0-0-|

G|----------------------------------------------------------------|
D|------------------0--2-------2-2-2-2-------0--2--------0-2-0----| 
A|--------------------------------------------------------------0-| 
E|-1--0-------1--0--------1--0---------1--0--------1--0-----------|

G|---------------------------------------------|
D|-------0--2--5-5-5-5-5-5-5-5-4-4-4-4-4-4-4-4-|
A|---------------------------------------------| 
E|-1--0----------------------------------------|

G|----------------------------------------------------------------|
D|------------------0--2-------2-2-2-2-------0--2--------0-2-0----| 
A|--------------------------------------------------------------0-| 
E|-1--0-------1--0--------1--0---------1--0--------1--0-----------|

G|---------------------------------------------|
D|-------0--2--5-5-5-5-5-5-5-5-4-4-4-4-4-4-4-4-|
A|---------------------------------------------| 
E|-1--0----------------------------------------|

[Pre-Chorus]
G|---------------------------------------------------------------|
D|---------------------------------------------------------------| 
A|---------------------------------------------------------------|(2x) 
E|-1-1-1-1-3-3-3-3-6-5-5-5-6-5-5-5-1-1-1-1-3-3-3-3-6-5~---6-5~---|

[Chorus]
G|---------------------------|
D|---------------------------| 
A|-6--5~-0-5-5-5-6--5--3--5--| (3x)
E|---------------------------|

G|------------------------------------|
D|-----10---10---10~------7-8-7-5-----| 
A|-8-8----8----8------7-7---------8-7-| 
E|------------------------------------|

G|---------------------------|
D|---------------------------| 
A|-6--5~-0-5-5-5-6--5--3--5--| (3x)
E|---------------------------|

G|-----------------------------------|
D|-----10---10---10~------9---9---9~-| 
A|-8-8----8----8------7-7---7---7----| 
E|-----------------------------------|

[Verse]
G|---------------------------------|
D|-8-7-7-7-7-7-7-7-8-7-7-7-5-7-7-7-| 
A|---------------------------------| (2x)
E|---------------------------------|

G|---------------------------------|
D|---------------------------------| 
A|-8-7-7-7-7-7-7-7-8---7---5---7---| (2x) 
E|---------------------------------|

G|---------------------------------|
D|-8-7-7-7-7-7-7-7-8-7-7-7-5-7-7-7-| 
A|---------------------------------| (2x) 
E|---------------------------------|

G|---------------------------------|
D|---------------------------------| 
A|-8-7-7-7-7-7-7-7-8---7---5---7---| (2x) 
E|---------------------------------|

G|---------------------------------|
D|---------------------------------| 
A|-------------3-2-----------------|(4x) 
E|-3-0-0-0-1-0-----0-0-0-0-0-0-0-0-|

G|----------------------------------------------------------------|
D|------------------0--2-------2-2-2-2-------0--2--------0-2-0----| 
A|--------------------------------------------------------------0-| 
E|-1--0-------1--0--------1--0---------1--0--------1--0-----------|

G|---------------------------------------------|
D|-------0--2--5-5-5-5-5-5-5-5-4-4-4-4-4-4-4-4-|
A|---------------------------------------------| 
E|-1--0----------------------------------------|

G|----------------------------------------------------------------|
D|------------------0--2-------2-2-2-2-------0--2--------0-2-0----| 
A|--------------------------------------------------------------0-| 
E|-1--0-------1--0--------1--0---------1--0--------1--0-----------|

G|---------------------------------------------|
D|-------0--2--5-5-5-5-5-5-5-5-4-4-4-4-4-4-4-4-|
A|---------------------------------------------| 
E|-1--0----------------------------------------|

[Pre-Chorus 2]
G|---------------------------------------------------------------|
D|---------------------------------------------------------------| 
A|---------------------------------------------------------------|
E|-1-1-1-1-3-3-3-3-6-5-5-5-6-5-5-5-1-1-1-1-3-3-3-3-6-5~---6-5~---|

G|---------------------------------------------------------------|
D|-3-3-3-3-5-5-5-5-8-7-7-7-8-7-7-7-3-3-3-3-5-5-5-5-8-7~---8-7~---| 
A|---------------------------------------------------------------| 
E|---------------------------------------------------------------|

[Chorus]
G|---------------------------|
D|---------------------------| 
A|-6--5~-0-5-5-5-6--5--3--5--| (3x)
E|---------------------------|

G|------------------------------------|
D|-----10---10---10~------7-8-7-5-----| 
A|-8-8----8----8------7-7---------8-7-| 
E|------------------------------------|

G|---------------------------|
D|---------------------------| 
A|-6--5~-0-5-5-5-6--5--3--5--| (3x)
E|---------------------------|

G|-----------------------------------|
D|-----10---10---10~------9---9---9~-| 
A|-8-8----8----8------7-7---7---7----| 
E|-----------------------------------|

(Pause)

[Bridge & Solo]
G|---------------------------------|
D|---------------------------------| 
A|-------------3-2-----------------|(8x)
E|-3-0-0-0-1-0-----0-0-0-0-0-0-0-0-|

G|-----------------------------------------------------------------|
D|-5-5-5-5-5-5-5-5-4-4-4-4-4-4-4-4-2-2-2-2-2-2-2-2-2-2-2-2-2-2-2-2-| 
A|-----------------------------------------------------------------|(3x)
E|-----------------------------------------------------------------|

G|-----------------------------------------------------------------|
D|-5-5-5-5-5-5-5-5-4-4-4-4-4-4-4-4-2~------2~------2~------2~------| 
A|-----------------------------------------------------------------|
E|-----------------------------------------------------------------|

G|-----------------------------------------------------------|
D|-----------------------------------------------------------| 
A|--------7-7-7-7-7-7-7--5-7-7-7-8--5-7-7-7-7-7-7-7--5-7-7-7-|          
E|-0--5-7----------------------------------------------------|

G|-------------------------------------------------------------|
D|-----------------------------5-5-5-5-5-5-5-5-4-4-4-4-4-4-4-4-| 
A|-8--5-7-7-7-7-7-7-7--5-7-7-7---------------------------------|        
E|-------------------------------------------------------------|

G|-----------------------------------------------------------|
D|-----------------------------------------------------------| 
A|--------7-7-7-7-7-7-7--5-7-7-7-8--5-7-7-7-7-7-7-7--5-7-7-7-|          
E|-0--5-7----------------------------------------------------|

G|-------------------------------------------------------------|
D|-----------------------------5-5-5-5-5-5-5-5-4-4-4-4-4-4-4-4-| 
A|-8--5-7-7-7-7-7-7-7--5-7-7-7---------------------------------|        
E|-------------------------------------------------------------|

G|---------------------------------------------------------------|
D|------------------0--2-------2-2-2-2-------0--2--------2-0-----| 
A|-----------------------------------------------------------2-0-| 
E|-1--0-------1--0--------1--0---------1--0--------1--0----------|

G|---------------------------------------------|
D|-------0--2--5-5-5-5-5-5-5-5-4-4-4-4-4-4-4-4-|
A|---------------------------------------------| 
E|-1--0----------------------------------------|

G|---------------------------------------------------------------|
D|------------------0--2-------2-2-2-2-------0--2--------2-0-----| 
A|-----------------------------------------------------------2-0-| 
E|-1--0-------1--0--------1--0---------1--0--------1--0----------|

G|---------------------------------------------|
D|-------0--2--5-5-5-5-5-5-5-5-4-4-4-4-4-4-4-4-|
A|---------------------------------------------| 
E|-1--0----------------------------------------|

G|---------------------------------------------------------------|
D|------------------0--2-------2-2-2-2-------0--2--------2-0-----| 
A|-----------------------------------------------------------2-0-| 
E|-1--0-------1--0--------1--0---------1--0--------1--0----------|

G|---------------------------------------------|
D|-------0--2--5-5-5-5-5-5-5-5-4-4-4-4-4-4-4-4-|
A|---------------------------------------------| 
E|-1--0----------------------------------------|

G|---------------------------------------------------------------|
D|------------------0--2-------2-2-2-2-------0--2--------2-0-----| 
A|-----------------------------------------------------------2-0-| 
E|-1--0-------1--0--------1--0---------1--0--------1--0----------|

G|---------------------------------------------|
D|-------0--2--5-5-5-5-5-5-5-5-4-4-4-4-4-4-4-4-|
A|---------------------------------------------| 
E|-1--0----------------------------------------|

G|-------------------------------|
D|-------------------------------| 
A|-8--7~-7-7-7-7-8---7---5---7---|(3x)  
E|-------------------------------|

G|---------------------------------|
D|-5-5-5-5-5-5-5-5-4-4-4-4-4-4-4-4-|
A|---------------------------------| 
E|---------------------------------|

G|-------------------------------|
D|-------------------------------| 
A|-8--7~-7-7-7-7-8---7---5---7---|(3x)  
E|-------------------------------|

G|---------------------------------|
D|-5-5-5-5-5-5-5-5-4-4-4-4-4-4-4-4-|
A|---------------------------------| 
E|---------------------------------|

G|-------------------------------|
D|-------------------------------| 
A|-8--7~-7-7-7-7-8---7---5---7---|(3x)  
E|-------------------------------|

G|---------------------------------|
D|-5-5-5-5-5-5-5-5-4-4-4-4-4-4-4-4-|
A|---------------------------------| 
E|---------------------------------|

G|-------------------------------|
D|-------------------------------| 
A|-8--7~-7-7-7-7-8---7---5---7---|(3x)
E|-------------------------------|

G|---------------------------------|
D|-5-5-5-5-5-5-5-5-4-4-4-4-4-4-4-4-|
A|---------------------------------| 
E|---------------------------------|

[Final Chorus]
G|---------------------------|
D|---------------------------| 
A|-6--5~-0-5-5-5-6--5--3--5--| (3x)
E|---------------------------|

G|------------------------------------|
D|-----10---10---10~------7-8-7-5-----| 
A|-8-8----8----8------7-7---------8-7-| 
E|------------------------------------|

G|---------------------------|
D|---------------------------| 
A|-6--5~-0-5-5-5-6--5--3--5--| (3x)
E|---------------------------|

G|-----------------------------------|
D|-3~---2~---------------------------| 
A|-----------3~---5~---8--7~---------| 
E|-----------------------------------|



************************************

| ~  Vibrato

************************************

            
            
Suggest correction
Creating personal tab
Creating personal tab
You can edit any tab online and save it as your Personal.

You can edit, replace or remove any tab part or add personal notes – all changes will be seen only by you.

Personal tabs can be accessed anytime from any device, even offline.
Learn more »
Give kudos to tab author, rate the tab!
1 2 3 4 5
comments
print report bad tab
guest
You may want to rate the tab now too:
select rating
Wanna post a correction for this tab? Suggest correction