Oops, an error
Loading. Please wait.

Caught In A Mosh Tab

version 1
version 1

Whole song

Interactive

112,439 views 87 this week
11 commentsread comments
1 2 3 4 5
excellent!
x 49
add to favorites
launch autoscroll
font size
0
reset
how to read this tab
guitar tuner
Tab Pro tools
  • play this tab
  • loop segment
  • change instrument
  • show fretboard
  • metronome
×
Best way to learn
"Caught In A Mosh"
Autoscroll
slow
fast
+/-
esc
set tempo
stop
Anthrax:  Caught In A Mosh


Tuning: Standard

[Intro]

Guitar 1 (Use upstrokes on the chords)
e|------------------------------------------------------|
B|--3------------3-------------3------------------------|
G|--2------------2-------------2------------2-----------|
D|--0------------0-------------0------------2-----------|
A|--0------------0-------------0------------0-----------|
E|------------------------------------------------------|

e|--------------------------------------------|
B|--3------------3-------------3--------------|
G|--2------------2-------------2--------------|
D|--0------------0-------------0------------2-|
A|--0------------0-------------0------------2-|
E|------------------------------------------0-|

Guitar 2
e|------------------------------------------------------|
B|------------------------------------------------------|
G|------------------------------------------------------|
D|------------------------------------------------------|
A|------------2-2-----------2-2----------2-2--------2-2-|
E|------------0-0-----------0-0----------0-0--------0-0-|
              * *           * *          * *        * * 
e|--------------------------------------------|
B|--------------------------------------------|
G|--------------------------------------------|
D|--------------------------------------------|
A|------------2-2-----------2-2----------2-2--|
E|------------0-0-----------0-0----------0-0--|
              * *           * *          * *
End intro


[Riff 1]

e|--------------------------------|
B|--------------------------------|
G|--------------------------------|
D|--------------------------------|
A|--------------------------------|
E|-0--0-1-0-0-3-0-0-4-0-5-0-6-7-8-|

e|--------------------------------|
B|--------------------------------|
G|--------------------------------|
D|--------------------------------|
A|--------------------------------|
E|-0--0-1-0-0-3-0-0-4-0-5-0-8-7-6-|

Use this ending before the first verse
e|----------------------------------|
B|----------------------------------|
G|----------------------------------|
D|------------------------------9-9-|
A|------------------------------7-7-|
E|-0--0-1-0-0-3-0-0-4-0-5-0-8-7-----|


[Riff 2]

e|---------------------------------------------|
B|---------------------------------------------|
G|---------------------------------------------|
D|-9--------------------------------------10-9-|
A|-7-----------------------------9-10------8-7-|
E|---0-0-0-0-0-0-0-0-0-0-0-0-0-0-7--8-0-0------|
     * * * * * * * * * * * * * *      * *
   "Why don't you listen..."
e|---------------------|
B|---------------------|
G|---------------------|
D|-----8-9-------------|
A|-----6-7-------------|
E|-0-0-----0-0-0-0-0-0-|
   * *     * * * * * *


[Riff 3]                                                
                                                         x2 
e|------------------------------------------------------|-------|
B|------------------------------------------------------|-------|
G|------------------------------------------------------|-------|
D|------------------------------------------------------|-------|
A|-5----4---------------------5-5-4---------------------|--5-5--|
E|-3----2-0-2-0-2-0-2-0-2-0-2-3-3-2-0-2-0-2-0-2-0-2-0-2-|--3-3--|
          * * * * * * * * * *       * * * * * * * * * *
   "Can't stand it for..."
 

[Riff 4]

e|----------------|
B|----------------|
G|----------------|
D|-7-----------5--|
A|-5-----3-----3--|
E|-------1--------|
  "Which one of these words..."

Play riff 1    "All caught in a mosh..."
Play riff 4    "Talking to you..."
Play Riff 1    "What is it ?..."
Play Riff 2    "Don't tell me how to..."
Play Riff 3    "Can't stand it for..."
Play Riff 4    "Which one of these words..."
Play Riff 1    "All caught in a mosh..."
Play Riff 4    "Talking to you..."
Play Riff 1    "What is it ?..."


[Lead in to riff 5]

e|-----------------------------------------|
B|-----------------------------------------|
G|-----------------------------------------|
D|-----------------------------------------|
A|--2------2------2------2---2-2-2-2-2-2-2-|
E|--0----3-0----3-0----3-0---0-0-0-0-0-0-0-|
         *      *      *

[Riff 5]

e|----------------------------------------------|
B|----------------------------------------------|
G|----------------------------------------------|
D|--------9\-5----------------------------------|
A|-2------7\-3------4---------------5-----7--7\-|
E|-0----------------2---2-2-2-2-2-2-3-3-3-5-----|
                        * * * * * *   * *
    "Think, before you speak..."


Lead in to next riff
e|--------------------------------------|
B|--------------------------------------|
G|--------------------------------------|
D|--------------------------------------|
A|-2------------------------------------|
E|-0-0-0-0-0-0-0-0-0-...--0000000000000-|
     * * * * * * * *      *************


[Riff 6]
 (solo rhythm)        x8
e|---------------------------|
B|---------------------------|
G|---------------------------|
D|---------------------------|
A|-4---------------------5-5-|
E|-2-0-2-0-2-0-2-0-2-0-2-3-3-|
     * * * * * * * * * * 


[Riff 7] 

(Solo Rhythm)
e|----------------------------------|
B|----------------------------------|
G|----------------------------------|
D|----------------------------------|
A|-2---5-----5-----5-----5-----5-4--|
E|-0-0-3-0-0-3-0-0-3-0-0-3-0-0-3-2--|
     *   * *   * *   * *   * *
e|---------------------------------|
B|---------------------------------|
G|---------------------------------|
D|------------------------------4--|
A|-----5-----5-----5-----5------2--|
E|-0-0-3-0-0-3-0-0-3-0-0-3-0-0-----|
   * *   * *   * *   * *   * * 
e|----------------------------------|
B|----------------------------------|
G|----------------------------------|
D|----------------------------------|
A|-----5-----5-----5-----5-----5-4--|
E|-0-0-3-0-0-3-0-0-3-0-0-3-0-0-3-2--|
   * *   * *   * *   * *   * *
e|---------------------------------|
B|---------------------------------|
G|---------------------------------|
D|------------------------------4--|
A|-----5-----5-----5-----5------2--|
E|-0-0-3-0-0-3-0-0-3-0-0-3-0-0-----|
   * *   * *   * *   * *   * * 


[Riff 8]

(Solo Rhythm)
e|--------------------------------------------|
B|--------------------------------------------|
G|--------------------------------------------|
D|---------7\5--------------------------------|
A|-2-------5\3-------4---------5-------7----9-|
E|-0---0-0-------0-0-2-----0-0-3-----0-5--0-7-|
       * *       * *       * *       *    *

Play riff 1
Play riff 2     "Hey man..."
Play riff 3     "Can't stand it..."
Play riff 4     "Which one of these words..."
Play Riff 1     "All caught in a mosh..."
Play Riff 4     "Talking to you..."
Play Riff 1     "What is it ?..."


[Ending]
e|----------------------------------|
B|----------------------------------|
G|----------------------------------|
D|----------------------9-9-9-9-----|
A|-2--5--2-----8-9-10---7-7-7-7-10\-|
E|-0--3--0-----6-7--8------------8\-|
  "...mosh..."


notation:
^   =  bend [ ^ = half, ^^ = whole, etc. ]
^r  =  bend and release
x   =  mute with fret-hand
*   =  mute with palm-hand
X\\ =  pick slide
h   =  hammer-on
p   =  pull-off
~   =  vibrato
t   =  tap-on
/   =  slide up
\   =  slide down
h.  =  harmonics
ah  =  artificial harmonic
(9) =  ghost note
tm  =  trem picking
tr  =  trill
comments
print report bad tab
11 comments total. Showing first comments.
0 reply
MegaShadowZX wrote on August 7 2007, 10:51 am

This tab is perfect! Sounds just like the original. However the only thing I would add would be the tempos in each part of the song, seeing how this song changes tempos, but 5 stars for accuracy!

0 reply
Steebs wrote on August 28 2007, 03:14 pm

Very nice tab.

0 reply
St. Angry wrote on October 8 2007, 02:11 pm

hehehehehehe friggin' shweet!

I want to post or [tab]
guest
You may want to rate the tab now too:
select rating
Please do not post tabs as comments. Select "correction" instead!