Oops, an error
Loading. Please wait.

Drop The Ball tab

version 1
version 1

Whole song

by Anthrax
341 views 1 this week
no commentswrite comment
1 2 3 4 5
x 3
add to favorites
×
Save as Personal and add changes to this tab that will be seen only by you. Learn more ›
×
You can save this tab as Personal to edit and correct it or add notes. All changes will be seen only by you. Learn more »
launch autoscroll
font size
0
reset
how to read this tab
guitar tuner
edit
Autoscroll
slow
fast
+/-
esc
set tempo
stop
#----------------------------------PLEASE NOTE---------------------------------#
#This file is the author's own work and represents their interpretation of the #
#song. You may only use this file for private study, scholarship, or research. #
#------------------------------------------------------------------------------##
From: Burning.Inside@f929.n273.z1.fidonet.org (Burning Inside)
Date: 27 Oct 95 16:52:30 -0400
Subject: TAB: "Drop the Ball" by Anthrax


From: burning.inside@f929.n273.z1.fidonet.org

Drop The Ball           by Anthrax
                        from the album "Stomp 442"
                        words and music by Charlie Benante, John Bush,
                                Scott Ian, and Frank Bello
                        tabbed by Tom Mallon
 
Dropped-D Tuning (DADGBE)
 
INTRO                 INTRO FILL (2nd guitar)
   harm.     pm..
E ------------------|----------------------------------
B ------------------|----------------------------------
G ------------------|----------------------------------
D -<6><6><6>--------|----------------------------------
A -<6><6><6>-0-0----|----------------------------------
E -<6><6><6>-0-0----|-6^-------6^------6^--------6^----
 
VERSE
      pm......      pm......
E -----------------------------------------------------
B -----------------------------------------------------
G -----------------------------------------------------
D -----------------------------------------------------
A -6---0-0-0-0---6---0-0-0-0---------------------------
E -6^--0-0-0-0---6^--0-0-0-0---------------------------
 
VERSE FILL 1      VERSE FILL 2
  pm..
E -------------|---------------------------------------
B -------------|---------------------------------------
G -------------|--------10-----------------------------
D -------------|--------10-----------------------------
A -0-0--3------|--------8------------------------------
E -0-0--3------|---------------------------------------
 
BRIDGE                     BRIDGE 2
E ------------------------|-----------------------------
B ------------------------|-----------------------------
G ------------------------|-----------------------------
D ------------------------|-----------------------------
A -0---0---0---------5----|-3-3---3-3---3-3-------------
E -0---0---0---0-5-6---6--|-3-3---3-3---3-3--0-3-0-5-0-6
 
Note: When bridge speeds up, play BRIDGE 1 and BRIDGE 2
      but with hammer-ons in the single notes.
 


            
            
Suggest correction
Creating personal tab
Creating personal tab
You can edit any tab online and save it as your Personal.

You can edit, replace or remove any tab part or add personal notes – all changes will be seen only by you.

Personal tabs can be accessed anytime from any device, even offline.
Learn more »
Give kudos to tab author, rate the tab!
1 2 3 4 5
comments
print report bad tab
guest
Wanna post a correction for this tab? Suggest correction