Oops, an error
Loading. Please wait.

Efilnikufesin Tab

version 1
version 1

Whole song

Interactive

9,524 views 12 this week
no commentswrite comment
1 2 3 4 5
accurate
x 7
add to favorites
launch autoscroll
font size
0
reset
how to read this tab
guitar tuner
Autoscroll
slow
fast
+/-
esc
set tempo
stop
Help us to improve Ultimate-Guitar.com Take our survey!
×
Anthrax:  Efilnikufesin (N.F.L) 

transcribed by: Russ Elton (anthraxtabs@yahoo.com)

Date last modified: 03/07/02

FIND THE MOST UPDATED VERSION OF THIS SONG AT:

                          Spreading The Disease:
                        The Home For Anthrax Tabs
                   http://www.powerchords.org/anthraxtabs  

PLEASE DO NOT COPY THIS TAB TO ANOTHER SITE 
WITHOUT AUTHORS' PERMISSION.  THANK YOU

Tuning: Standard

Riff 1

Guitar 1
e|------------------------------------------|
B|------------------------------------------|
G|------------------------------------------|
D|------------------------------------------|
A|-5-6-7-5-6-7-------5-6-7-5-6-7------------|
E|-------------0-----------------6-(6)6^r~~-|

Guitar 2
e|------------------------------------------|
B|------------------------------------------|
G|------------------------------------------|
D|-4-5-6-4-5-6-------4-5-6-4-5-6------------|
A|------------------------------------------|
E|-------------0-----------------6-(6)6^r~~-|


Riff 2
e|---------------------------------|
B|---------------------------------|
G|---------------------------------|
D|---------------------------------|
A|---------------------------------|
E|-3-4-5-3-4-5-0-0-0-0-0-0-0-0-0-0-|
   * * * * * * * * * * * * * * * *
e|---------------------------------|
B|---------------------------------|
G|---------------------------------|
D|---------------------------------|
A|---------------------------------|
E|-3-4-5-3-4-5-4-4-4-4-4-4-4-4-4-4-|
   * * * * * * * * * * * * * * * *


Riff 3
e|---------------------------------|
B|---------------------------------|
G|---------------------------------|
D|---------------------------------|
A|-5-6-7-5-6-7-2-------------------|
E|-------------0-0-0-0-0-0-0-0-0-0-|
                 * * * * * * * * *
e|---------------------------------|
B|---------------------------------|
G|---------------------------------|
D|---------------------------------|
A|-5-6-7-5-6-7-8-------------------|
E|-------------6-6-6-6-6-6-6-6-6-6-|
                 * * * * * * * * *


Play Riff 1


Riff 2a
e|---------------------------------|
B|---------------------------------|
G|---------------------------------|
D|---------------------------------|
A|-------------2-------------2-----|
E|-3-4-5-3-4-5-0-0-0-0-0-0-0-0-0-0-|
   * * * * * *   * * * * * *   * *
   "It started back..."
e|---------------------------------|
B|---------------------------------|
G|---------------------------------|
D|---------------------------------|
A|-------------6-------------6-----|
E|-3-4-5-3-4-5-4-4-4-4-4-4-4-4-4-4-|
   * * * * * *   * * * * * *   * *
   "So cool..."


Riff 4
e|-----------------------------------------------|
B|-----------------------------------------------|
G|-----------------------------------------------|
D|--------------5------5-------------7-----------|
A|-2------4--5--3------3---7------5--5--2------2-|
E|-0--0-0-2--3-----0-0-----5--0-0-3-----0--0-0-0-|
      * *          * *        * *          * * 
   "Wasting your life..."
e|--------------------------------------------------------|
B|--------------------------------------------------------|
G|--------------------------------------------------------|
D|--------------5------5----------------------------------|
A|-2------4--5--3------3---7------5--4--2---------------2-|
E|-0--0-0-2--3-----0-0-----5--0-0-3--2--0-0-0-0-0-0-0-0-0-|
      * *          * *        * *         * * * * * * * 
   "Dancing on your grave..."


Riff 5
e|---------------------------------------------------------|
B|---------------------------------------------------------|
G|---------------------------------------------------------|
D|---------------------------------------------------------|
A|-3-4-4\3---------------------6-7-7\6---------------------|
E|-1-2-2\1-1-1-1-1-1-1-1-1-1-1-4-5-5\4-4-4-4-4-4-6-(6)^r~~-|
           * * * * * * * * * *         * * * * * 
  "N F L..."


Play Riff 1
Play Riff 2a   "The whole world..."
Play Riff 4    "Wasting your life..."
Play Riff 5    "N F L..."


Lead in to riff 6:
Both guitars
e|----------------------------------|
B|----------------------------------|
G|----------------------------------|
D|--------------2-1---2-1---2-1-----|
A|-5-6-7-5-6-7--2-1---2-1---2-1-----|
E|------------------0-----0-----0-0-|
                    *     *     * * 
Guitar 1
e|--------------------------------------------------------------|
B|--------------------------------------------------------------|
G|--------------------------7-9-10~~----------------------------|
D|--------------------6-7-9-------------------------------------|
A|-5-6-7-5-6-7--5-7-8-------------------------------------------|
E|--------------------------------------------------------------|

Guitar 2
e|--------------------------------------------------------------|
B|--------------------------------------------------------------|
G|--------------------------------------------------------------|
D|--------------------6-7-9-------------------------------------|
A|-5-6-7-5-6-7--5-7-8-----------2-----2-----2-----2-----2---2---|
E|------------------------------0-0-0-0-0-0-0-0-0-0-0-0-0-0-0-0-|
                                  * *   * *   * *   * *   *   * 

Riff 6
e|----------------------------------|
B|----------------------------------|
G|----------------------------------|
D|--------------2-1---2-1---2-1-----|
A|-5-6-7-5-6-7--2-1---2-1---2-1-----|
E|------------------0-----0-----0-0-|
                    *     *     * * 
e|-----------------------------------|
B|-----------------------------------|
G|--------------------------7-9-10\--|
D|--------------------6-7-9----------|
A|-5-6-7-5-6-7--5-7-8----------------|
E|-----------------------------------|


Riff 7 (solo rhythm)
e|----------------------------------|
B|----------------------------------|
G|----------------------------------|
D|--------------2-1---2-1---2-1-----|
A|-5-6-7-5-6-7--2-1---2-1---2-1-----|
E|------------------0-----0-----0-0-|
                    *     *     * * 
e|----------------------------------|
B|----------------------------------|
G|----------------------------------|
D|--------------7-6---7-6---7-6-----|
A|-5-6-7-5-6-7--7-6---7-6---7-6-----|
E|------------------0-----0-----0-0-|
                    *     *     * * 

Play Riff 1
Play Riff 2a   "You lived a life..."
Play Riff 4    "Wasting your life..."
Play Riff 5    "N F L..."

Ending
Both guitars
e|----------------------------------|
B|----------------------------------|
G|----------------------------------|
D|--------------2-1---2-1---2-1-----|
A|-5-6-7-5-6-7--2-1---2-1---2-1-----|
E|------------------0-----0-----0-0-|
                    *     *     * * 

Guitar 1
e|--------------------------------------------------------------|
B|--------------------------------------------------------------|
G|--------------------------7-9-10~~----------------------------|
D|--------------------6-7-9-------------------------------------|
A|-5-6-7-5-6-7--5-7-8-------------------------------------------|
E|--------------------------------------------------------------|

Guitar 2
e|--------------------------------------------------------------|
B|--------------------------------------------------------------|
G|--------------------------------------------------------------|
D|--------------------6-7-9-------------------------------------|
A|-5-6-7-5-6-7--5-7-8-----------2-----2-----2-----2-----2---2---|
E|------------------------------0-0-0-0-0-0-0-0-0-0-0-0-0-0-0-0-|
                                  * *   * *   * *   * *   *   * 

Both guitars
e|--------------|
B|--------------|
G|--------------|
D|-9-9-----9-9\-|
A|-7-7-----7-7\-|
E|--------------|


notation:
^   =  bend [ ^ = half, ^^ = whole, etc. ]
^r  =  bend and release
x   =  mute with fret-hand
*   =  mute with palm-hand
X\\ =  pick slide
h   =  hammer-on
p   =  pull-off
~   =  vibrato
t   =  tap-on
/   =  slide up
\   =  slide down
h.  =  harmonics
ah  =  artificial harmonic
(9) =  ghost note
tm  =  trem picking
tr  =  trill
Suggest correction
comments
print report bad tab
guest
You may want to rate the tab now too:
select rating
Wanna post a correction for this tab? Suggest correction