Oops, an error
Loading. Please wait.

Gung Ho tab

version 2
version 2

Whole song

Interactive

by Anthrax
7,472 views 3 this week
5 commentsread comments
1 2 3 4 5
x 9
add to favorites
×
Save as Personal and add changes to this tab that will be seen only by you. Learn more ›
×
You can save this tab as Personal to edit and correct it or add notes. All changes will be seen only by you. Learn more »
launch autoscroll
font size
0
reset
how to read this tab
guitar tuner
edit
Autoscroll
slow
fast
+/-
esc
set tempo
stop
Anthrax - Gung-Ho

One of my favourite Anthrax songs! & yes I have the solos!
Wanna contact me about it, my email is: rattlehead.coolio@hotmail.com

Intro:
GtrII                             (x4)*
e|-------------------------------------|
B|-------------------------------------|
G|-------------------------------------|
D|----------------------------5-4-5----|
A|-2--------3--------6--------3-2-3----|
E|-0-000000-1-000000-4-000000----------|
  Pm|------| |------| |----------------|
*After GtrII’s second barre, Gtr I does a divebomb on the 6E string. GtrI then plays:
e|---/15\----|
B|-----------|
G|-----------|
D|-----------|
A|-----------|
E|-----------|

Verse I:
GtrII                             (x8)
e|-------------------------------------|
B|-------------------------------------|
G|-------------------------------------|
D|----------------------------5-4-5----|
A|-2--------3--------6--------3-2-3----|
E|-0-000000-1-000000-4-000000----------|
  Pm|------| |------| |----------------|

Interlude I:
GtrII
e|--------------|--------------|--------------|---------------|
B|--------------|--------------|--------------|---------------|
G|--------------|--------------|--------------|---------------|
D|--------------|--------------|--------------|---------------|
A|--5--6--7--8--|--5—-6--7--8--|--5--6--7--8--|--5—-6--7--8---|
E|--3--4--5--6--|--3—-4--5--6--|--3--4--5--6--|--3—-4--5--6---|
GtrI
e|--------------|--------------|-10~11~12~13~-|-15~16~17~20fb-|
B|--------------|--------------|--------------|---------------|
G|-7~-8~-9~-10~-|-9~-10~11~12~-|--------------|---------------|
D|--------------|--------------|--------------|---------------|
A|--------------|--------------|--------------|---------------|
E|--------------|--------------|--------------|---------------|

Verse II:
GtrII                              (x4)
e|--------------------------------------|
B|--------------------------------------|
G|--------------------------------------|
D|---------------------------6/7-6/7----|
A|-2-------------------------4/5-4/5----|
E|-0-0000000000000000000000-------------|
  Pm|-----------------------------------|

Pre-Chorus:
GtrII                               (x4)
e|---------------------------------------|
B|---------------------------------------|
G|-------------------------------8/9-9---|
D|-7--------7--------7--------7—-6/7-7---|
A|-5-000000-5-000000-5-000000-5----------|
E|---------------------------------------|
  Pm|------| |------| |------------------|

Chorus I:
GtrII
e|-----------------------------------|--------------------------------------|
B|-----------------------------------|--------------------------------------|
G|-----------------------------------|--------------------------------------|
D|----9-9-----9-9-----9-9------------|----9-9-----9-9-----9-9---------------|
A|-2--7-7--2--7-7--2--7-7------------|-2--7-7--2--7-7--2--7-7---------------|
E|-0-------0-------0--------/12-\----|-0-------0-------0--------/12-\-------|

GtrI
e|----12~12~--12~12~--12~12~---------|----12~12~--12~12~--12~12~------------|
B|----------------------------8--\---|----------------------------8p7-5h7p5-|
G|-----------------------------------|--------------------------------------|
D|-----------------------------------|--------------------------------------|
A|-----------------------------------|--------------------------------------|
E|-----------------------------------|--------------------------------------|

Verse III: (same as verse II)

Pre-Chorus: (x4)

Chorus II:
GtrII
e|----------------------------------|---------------------------------------------------|
B|----------------------------------|---------------------------------------------------|
G|----------------------------------|---------------------------------------------------|
D|----9-9-----9-9-----9-9-----------|----9-9-----9-9-----9-9----------------------------|
A|-2--7-7--2--7-7--2--7-7-----------|-2--7-7--2--7-7--2--7-7----------------------------|
E|-0-------0-------0--------/12-\---|-0-------0-------0--------/12-\--------------------|
GtrI
e|----12~12~--12~12~--12~12~--------|----12~12~--12~12~--12~12~-------------------------|
B|----------------------------------|---------------------------------------------------|
G|----------------------------------|---------------------------12p9--------------------|
D|----------------------------------|--------------------------------12-11-9------------|
A|----------------------------------|----------------------------------------12-11-9----|
E|----------------------------------|------------------------------------------------12~|

Solo I:
GtrI
e|-----------------------------------------------------------------------------|
B|---------------------7-10-7-7-7-7-10-7-7-7-7-9-12-9-9-9-9-12-9-9-9-9---------|
G|-9-6-6-6-6-9-6-6-6-6--------------------------------------------------11-9~--|
D|-----------------------------------------------------------------------------|
A|-----------------------------------------------------------------------------|
E|-----------------------------------------------------------------------------|

e|-----------------------------------------------------------------------------|
B|------10-12-10-10-10-10-12-10-10-10-10-12-10-10-10-10-12-10-10-10-10—17fb~---|
G|-14fb------------------------------------------------------------------------|
D|-----------------------------------------------------------------------------|
A|-----------------------------------------------------------------------------|
E|-----------------------------------------------------------------------------|

e|-------------------------------------------------------------------------------|
B|-------------------------------------------------------------------------------|
G|-------------------------------------------------------------------------------|
D|-16-16-16-16-16-16-19-19-19-19-21-21-21-21-19-19-19-19-21-21-21-21-19-19-19-19-|
A|-------------------------------------------------------------------------------|
E|-------------------------------------------------------------------------------|

e|-----------------------------------------------|
B|-----------------------------------------------|
G|-----------------------------------------------|
D|-16-16-16-16-16-16-19-19-19-19-21-21-21-21-19--|
A|-----------------------------------------------|
E|-----------------------------------------------|

e|----------------------------------------------------------------|
B|-15fb~~--12-12-12-12-14-14-14-14-15-15-15-15-17-17-17-17-17fb~--|
G|----------------------------------------------------------------|
D|----------------------------------------------------------------|
A|----------------------------------------------------------------|
E|----------------------------------------------------------------|

e|-14-14-14-14-19-14-14-14-14-17-14-14-14-14-----------|
B|-------------------------------------------18hb-18hb-|
G|-----------------------------------------------------| (x3)
D|-----------------------------------------------------|
A|-----------------------------------------------------|
E|-----------------------------------------------------|

e|-------------------------------------------------------------------------|
B|-14-17-14-14-14-14-17-14-14-14-14----------------------------------------|
G|----------------------------------14-16-14-14-14-14-16-14-14-14-14-11~~--|
D|-------------------------------------------------------------------------|
A|-------------------------------------------------------------------------|
E|-------------------------------------------------------------------------|

e|--------------------------------------------------------------------------------|
B|--------------------------------------------------------------------------------|
G|-16-14-14-14-14-16-14-14-14-14--13--14--13--16-14-14-14-14-16-14-14-14-14—-13~--|
D|--------------------------------------------------------------------------------|
A|--------------------------------------------------------------------------------|
E|--------------------------------------------------------------------------------|

e|---------------------------------------------|
B|-------------------------------/--19hb\\\\\\-|
G|-16—-14—-13—-14—-13--11----------------------|
D|-------------------------9~~-----------------|
A|---------------------------------------------|
E|---------------------------------------------|End Solo

Verse IV: (same as verse II)

Pre-Chorus: (x4)

Chorus III:
GtrII
e|----------------------------------|----------------------------------|
B|----------------------------------|----------------------------------|
G|----------------------------------|----------------------------------|
D|----9-9-----9-9-----9-9-----------|----9-9-----9-9-----9-9-----------|
A|-2--7-7--2--7-7--2--7-7-----------|-2--7-7--2--7-7--2--7-7-----------|
E|-0-------0-------0--------/12-\---|-0-------0-------0--------/12-\---|
GtrI
e|----12~12~--12~12~--12~12~--------|----12~12~--12~12~--12~12~--------|
B|----------------------------------|----------------------------------|
G|----------------------------------|----------------------------------|
D|----------------------------------|----------------------------------|
A|----------------------------------|----------------------------------|
E|----------------------------------|----------------------------------|

GtrI
e|-------------------------------------------------------|
B|-------------------------------------------------15fb~-|
G|-------------------------------------12-14-12-12-------|
D|-------------------------12-14-12-12-------------------|
A|-------------12-14-12-12-------------------------------|
E|-12-14-12-12-------------------------------------------|

Solo II:
e|----------15t~~~~-17t~~~~-18t~~~~-|-19-----18-----17-----16------22t~~~~~-----|
B|-17t~~~~~-------------------------|----17-----16-----15-----14----------------|
G|----------------------------------|-------------------------------------------|
D|----------------------------------|-------------------------------------------|
A|----------------------------------|-------------------------------------------|
E|----------------------------------|----------------------------------------0d-|End Solo

Interlude II:
GtrII
e|--------------|--------------|--------------|------------------|
B|--------------|--------------|--------------|------------------|
G|--------------|--------------|--------------|------------------|
D|--------------|--------------|--------------|------------------|
A|--5--6--7--8--|--5—-6--7--8--|--7--8—-9—-10-|--7--8—-9—-10-5-5-|
E|--3--4--5--6--|--3—-4--5--6--|--5--6--7—-8--|--5--6--7—-8--3-3-|
GtrI
e|--------------|--------------|--------------|------------------|
B|--------------|--------------|--------------|------------------|
G|-7~-8~-9~-10~-|-7~-8~-9~-10~-|-9~-10~11~12~-|-9~-10~11~12~-12~-|
D|--------------|--------------|--------------|------------------|
A|--------------|--------------|--------------|------------------|
E|--------------|--------------|--------------|------------------|

GtrI then plays random tremolo & notes while GtrII strums the following chord:
e|-----|
B|-----|
G|-----|
D|-----|
A|--5--|
E|--3--| Keep playing until the beginning of the next solo.

Solo III:
GtrI & GtrII
e|------------------------------------------9------------|
B|-9--------------9-10-9-----9-10-12--12-12----12--10-9--|
G|---11-9----9-11--------11------------------------------|
D|---------9---------------------------------------------|
A|-------------------------------------------------------|
E|-------------------------------------------------------|

e|---------12---------------------------------------|
B|-9-10-12----12-10-9-9-10-12-10-9------------------|
G|----------------------------------11--------------|
D|-------------------------------------9-9-9--9-9~~-|
A|--------------------------------------------------|
E|--------------------------------------------------|

e|------------------------------------------9------------|
B|-9--------------9-10-9-----9-10-12--12-12----12--10-9--|
G|---11-9----9-11--------11------------------------------|
D|---------9---------------------------------------------|
A|-------------------------------------------------------|
E|-------------------------------------------------------|

e|---------12----------------------------------------------------|
B|-9-10-12----12-10-9-9-10-12-10-9-------------------------------|
G|----------------------------------11-----------8-9~~~~~~~~~~~~-|
D|-------------------------------------9-9-11-9------------------|
A|---------------------------------------------------------------|
E|---------------------------------------------------------------|

e|------------------------------------------------|
B|-/20~-20~-20~-20~-20==fb-20===fb-20==fb-20===fb-|
G|------------------------------------------------|
D|------------------------------------------------|
A|------------------------------------------------|
E|------------------------------------------------|End Solo

Ending:
e|--------------------------------------------------------------------------------------|
B|--------------------------------------------------------------------------------------|
G|--------------------------------------------------------------------------------------|
D|---6----6----6----6----6----6----6----6----6-6-6-6-6-6-6-6-6-6-6-6-6-6-6-6-6-6-6-6----|
A|-0-4--0-4--0-4--0-4--0-4—-0-4--0-4--0-4--0-4-4-4-4-4-4-4-4-4-4-4-4-4-4-4-4-4-4-4-4-etc|
E|--------------------------------------------------------------------------------------|


Tabulature Legend:
“GtrI” & “GtrII” – Guitar one & Guitar two
“pm|-|”          – palm mutation
“/”              – Slide up the neck
“\”              – Slide down the neck
“~”              - Vibrato
“fb”             – Full bend of note
“hb”             – Half bend of note
“p”              – Pull off
“h”              – Hammer-on
“\\\\\”          – A slower slide
“t”              - tremolo
“t~”             – Rapid tremolo
“d”              – Dive bomb

Enjoy!

            
            
Suggest correction
Creating personal tab
Creating personal tab
You can edit any tab online and save it as your Personal.

You can edit, replace or remove any tab part or add personal notes – all changes will be seen only by you.

Personal tabs can be accessed anytime from any device, even offline.
Learn more »
comments
print report bad tab
5 comments total. Showing first comments.
0 reply
aartisookniemiz 139 Feb 14, 2008 08:30 AM

You`ve Got The Solo
HOORAY HOORAY HOORAY

+1 reply
aartisookniemiz 139 Apr 03, 2008 10:00 AM

And Their Perfect
The Solos

+1 reply
mastaofrocknrol 110 Mar 10, 2009 11:17 PM

Finally a Gung Ho tab WITH the solo`s
great job

guest
You may want to rate the tab now too:
select rating
Wanna post a correction for this tab? Suggest correction