Oops, an error
Loading. Please wait.

Hy Pro Glo Tab

version 1
version 1

Whole song

Interactive

2,069 views 3 this week
no commentswrite comment
1 2 3 4 5
please rate
add to favorites
launch autoscroll
font size
0
reset
how to read this tab
guitar tuner
Tab Pro tools
  • play this tab
  • loop segment
  • change instrument
  • show fretboard
  • metronome
×
Best way to learn
"Hy Pro Glo"
Autoscroll
slow
fast
+/-
esc
set tempo
stop
Anthrax
"Hy Pro Glo"
Tabbed by: Sean Stinson

Note: Pretty easy song that does
      a number on your fingies.

Originally found at: www.geocities.com/thekillingbox

Intro:
|--------------------------------------------------------|
|--------------------------------------------------------|
|--------------------------------------------------------|
|-4-4-4---4-4---4-4-4---4-4---4-4-4---4-4---4-4-44--7----|
|-4-4-4---4-4---4-4-4---4-4---4-4-4---4-4---4-4-44--7----|
|-2-2-2-0-2-2-0-2-2-2-0-2-2-0-2-2-2-0-2-2-0-2-2-22--5----|

Main riff:
|--------------------------------------------------------|
|--------------------------------------------------------|
|--------------------------------------------------------|
|-4-4-4---4-4---4-4-4---4-4---4-4-4---4-4---4-4-44--7----|
|-4-4-4---4-4---4-4-4---4-4---4-4-4---4-4---4-4-44--7----|
|-2-2-2p0-2-2p0-2-2-2p0-2-2p0-2-2-2p0-2-2p0-2-2-22--5----|

Verse riff:
|-------------------------------| x 3
|-------------------------------|
|-------------------------------|
|-4--4-4-4--7-/-4---4-/-7-------|
|-4--4-4-4--7-/-4---4-/-7-------|
|-2--2-2-2--5-/-2---2-/-5-------|
   PM.....

|-------------------------------| x 1
|-------------------------------|
|-------------------------------|
|-4--4-4-4--44--7---------------|
|-4--4-4-4--44--7---------------|
|-2--2-2-2--22--5---------------|
   PM.....

Fill:
|-------------------------------|
|-------------------------------|
|-------------4-4-4-------------|
|-4-4-4-7-7-7-4-4-4-------------|
|-4-4-4-7-7-7-2-2-2-------------|
|-2-2-2-5-5-5-------------------|
PM.................

Bridge:
|-------------------------------|
|-------------------------------|
|-4--4-4-4--7-/-4---4-/-7-------|
|-4--4-4-4--7-/-4---4-/-7-------|
|-2--2-2-2--5-/-2---2-/-5-------|
|-------------------------------|
   PM......

Riff 3:
|-------------------------------|
|-------------------------------|
|-------------------------------|
|-44--7-------444-444-4---------|
|-44--7-------444-444-4---------|
|-22--5-------222-222-2---------|
            PM.......

Riff 4 (you got that look...):

|-------------------------------|
|-------------------------------|
|-------------------------------|
|-------------------------------|
|-------------------------------|
|-002002002002002002002002002---|

Riff 5:
|-------------------------------|
|-------------------------------|
|-------------------------------|
|-7-6-5---4-4-------------------|
|-7-6-5---4-4-------------------|
|-5-4-3p0-2-2p0-----------------|

Put it together.

Any additions/comments, mail me at furrets@hotmail.com.

HAIL! The gods made heavy metal and they saw that it was good.

- S.L.A.Y.E.R.
comments
We did not receive enough feedback on this tab! Please rate:
print report bad tab
1 2 3 4 5
I want to post or [tab]
guest
You may want to rate the tab now too:
select rating
Please do not post tabs as comments. Select "correction" instead!