Oops, an error
Loading. Please wait.

I Am The Law Tab

version 1
version 1

Whole song

Interactive

57,359 views 57 this week
6 commentsread comments
1 2 3 4 5
x 19
add to favorites
launch autoscroll
font size
0
reset
how to read this tab
guitar tuner
Autoscroll
slow
fast
+/-
esc
set tempo
stop
Help us to improve Ultimate-Guitar.com Take our survey!
×
Tuning: Standard

Riff 1 (chorus)
e|---------------------------|
B|---------------------------|
G|---------------------------|
D|-------4-------------------|
A|----2--2-5-----/7-5-4-5--2-|
E|-00-0----3--33-/5-3-2-3--0-|
                    * * * 
 
Riff 2                        x2
e|-----------------------------|
B|-----------------------------|
G|-----------------------------|
D|-----------------------------|
A|----------5----------------5-|
E|-3-0-33-0-3-------3-0-33-0-3-|
   * * ** *         * * ** * 

Riff 3
e|---------------------------------------|
B|---------------------------------------|
G|---------------------------------------|
D|---------------------------------------|
A|-----------------------------------5/8-|
E|-3-0-33-0--3-0-33-0--3-0-33-0--3-0-3/6-|
   * * ** *  * * ** *  * * ** *  * * 


Play riff 2


Riff 4 (verse)
e|----------------------------|
B|----------------------------|
G|----------------------------|
D|----------------------------|
A|-----------5------4---3---2-|
E|-3-0-33-0--3--3-2-2-1-1-0-0-|
   * * ** *     * *   *   * 
            "Fifteen years..."
e|----------------------------|
B|----------------------------|
G|----------------------------|
D|----------------------------|
A|-----------5------2---2---2-|
E|-3-0-33-0--3--3-0-0-0-0-0-0-|
   * * ** *     * *   *   * 
            "He was like..."


Play riff 3   "DROKK IT"
Play riff 4   "With his gun and bike..."


Riff 3a
e|---------------------------------------|
B|---------------------------------------|
G|---------------------------------------|
D|---------------------------------------|
A|-----------------------------------5/8-|
E|-3-0-33-0--3-0-33-0--3-0-33-0--3-0-3/6-|
   * * ** *  * * ** *  * * ** *  * * 
                                "DROKK IT"
e|------------------------------|
B|------------------------------|
G|------------------------------|
D|------------------------------|
A|----------------------7-5-4-5-|
E|-3-0-33-0--3-0-33-00--5-3-2-3-|
   * * ** *  * * ** **  * * * * 


Play riff 1   "Respect the badge..."


Riff 5                                               x2  
e|----------------------------------------------------|----------|
B|----------------------------------------------------|----------|
G|----------------------------------------------------|----------|
D|-------4/5-4-2------10-9---------4/5-4-2-------9-10-|--9-9-9-9-|
A|-2-----2/3-2-0-3-----8-7---2-----2/3-2-0-3-----7--8-|--7-7-7-7-|
E|-0-0-0---------1--0--------0-0-0---------1--0-------|----------|
     * *            *          * *            *
    "I am the law..."                                  "I am the law."


Play riff 4    "In the cursed earth..."
Play riff 3a   
Play riff 1    "Respect the badge..."
Play riff 5    "I am the law..."


Riff 6
e|----------------------------------------|
B|----------------------------------------|
G|----------------------------------------|
D|-7-6-5------------------7-5-6-----------|
A|-5-4-3------------------5-3-4-5-5-5-5-5-|
E|-------333333333333...--------3-3-3-3-3-|
         ************

Riff 6a
e|--------------------------|
B|--------------------------|
G|--------------------------|
D|--------------------------|
A|-5-4-3--------5-3-4-5-5-5-|
E|-------333333-------3-3-3-|
         ******       * * * 

Riff 7
e|--------------------------|
B|--------------------------|
G|--------------------------|
D|--------------------------|
A|-3-2-1--------3-1-2-3-3-3-|
E|-------111111-------1-1-1-|
         ******       * * * 
   "Crime..."


Riff 8 (solo rhythm)
e|---------------------------------|
B|---------------------------------|
G|---------------------------------|
D|-4-------5-------6---------------|
A|-2-------3-------4---------------|
E|---2-2-2---2-2-2---3-3-3-3-3-3-3-|
     * * *   * * *   * * * * * * *  


Play riff 7    Solo Rhythm
Play riff 6a   


Riff 6b
e|--------------------------------|
B|--------------------------------|
G|--------------------------------|
D|-7--6--5---------7--5--6--------|
A|-5--4--3--5-5-5--5--3--4--5-5-5-|
E|----------3-3-3-----------3-3-3-|
            * * *           * * * 
   "Oh..."


Riff 7a
e|--------------------------------|
B|--------------------------------|
G|--------------------------------|
D|-5--4--3---------5--3--4--------|
A|-3--2--1--3-3-3--3--1--2--3-3-3-|
E|----------1-1-1-----------1-1-1-|
            * * *           * * * 
   "Crime..."
 

Riff 9      x5
e|-----------|--------------------|
B|-----------|--------------------|
G|-----------|--------------------|
D|-----------|--------------------|
A|-----------|------------7-5-4-5-|
E|-3-0-33-0--|-3-0-33-00--5-3-2-3-|
   * * ** *    * * ** **  * * * *


Play riff 1    "Respect the badge..."


Riff 5a
e|----------------------------------------------------|
B|----------------------------------------------------|
G|----------------------------------------------------|
D|-------4/5-4-2------10-9---------4/5-4-2-------9-10-|
A|-2-----2/3-2-0-3-----8-7---2-----2/3-2-0-3-----7--8-|
E|-0-0-0---------1--0--------0-0-0---------1--0-------|
     * *            *          * *            *
   "I am the law..."

Ending
            x5
e|-----------|----------------------|
B|-----------|----------------------|
G|-----------|----------------------|
D|-----------|----------------------|
A|-----------|------------7-5-4-5-2-|
E|-3-0-33-0--|-3-0-33-00--5-3-2-3-0-|
   * * ** *    * * ** **  * * * *
   "I ..... am ..... the ..... law!"


And thats it



************************************

notation:
^   =  bend [ ^ = half, ^^ = whole, etc. ]
^r  =  bend and release
x   =  mute with fret-hand
*   =  mute with palm-hand
X\\ =  pick slide
h   =  hammer-on
p   =  pull-off
~   =  vibrato
t   =  tap-on
/   =  slide up
\   =  slide down
h.  =  harmonics
ah  =  artificial harmonic
(9) =  ghost note
tm  =  trem picking
tr  =  trill

************************************
Suggest correction
comments
print report bad tab
6 comments total. Showing first comments.
0 reply
l)ragonForce 10 Jul 10, 2006 10:29 AM

nicly done

+1 reply
Trail-OfDead 10 Apr 06, 2008 04:32 PM

Think your a bit off on the E|-3-0-33-0 part, watched some youtube videos of Scott Ian and he seems to be doing more than that. Not sure what though

+2 reply
Gresp 10 Aug 13, 2009 01:54 PM

Good tab dude, but there are few mistakes like this:
Riff 2 x2
e|-----------------------------|
B|-----------------------------|
G|-----------------------------|
D|-----------------------------|
A|----------5----------------5-|
E|-3-0-33-0-3-------3-0-33-0-3-|
* * ** * * * ** *

Riff 3
e|---------------------------------------|
B|---------------------------------------|
G|---------------------------------------|
D|---------------------------------------|
A|-----------------------------------5/8-|
E|-3-0-33-0--3-0-33-0--3-0-33-0--3-0-3/6-|
* * ** * * * ** * * * ** * * *

Play riff 2

Riff 4 (verse)
e|----------------------------|
B|----------------------------|
G|----------------------------|
D|----------------------------|
A|-----------5------4---3---2-|
E|-3-0-33-0--3--3-2-2-1-1-0-0-|
* * ** * * * * *
"Fifteen years..."
e|----------------------------|
B|----------------------------|
G|----------------------------|
D|----------------------------|
A|-----------5------2---2---2-|
E|-3-0-33-0--3--3-0-0-0-0-0-0-|
* * ** * * * * *
and all those kind of 3 0 33 0 should be 3 0 32 0, like this:
Riff 2 x2
e|-----------------------------|
B|-----------------------------|
G|-----------------------------|
D|-----------------------------|
A|----------5----------------5-|
E|-3-0-32-0-3-------3-0-32-0-3-|
* * ** * * * ** *

Riff 3
e|---------------------------------------|
B|---------------------------------------|
G|---------------------------------------|
D|---------------------------------------|
A|-----------------------------------5/8-|
E|-3-0-32-0--3-0-32-0--3-0-32-0--3-0-3/6-|
* * ** * * * ** * * * ** * * *

Play riff 2

Riff 4 (verse)
e|----------------------------|
B|----------------------------|
G|----------------------------|
D|----------------------------|
A|-----------5------4---3---2-|
E|-3-0-32-0--3--3-2-2-1-1-0-0-|
* * ** * * * * *
"Fifteen years..."
e|----------------------------|
B|----------------------------|
G|----------------------------|
D|----------------------------|
A|-----------5------2---2---2-|
E|-3-0-32-0--3--3-0-0-0-0-0-0-|
* * ** * * * * *
everything else is pretty good.

guest
You may want to rate the tab now too:
select rating
Wanna post a correction for this tab? Suggest correction