Oops, an error
Loading. Please wait.

Imitation Of Life Tab

version 1
version 1

Whole song

Interactive

4,872 views 1 this week
no commentswrite comment
1 2 3 4 5
accurate
x 3
add to favorites
launch autoscroll
font size
0
reset
how to read this tab
guitar tuner
Autoscroll
slow
fast
+/-
esc
set tempo
stop
Help us to improve Ultimate-Guitar.com Take our survey!
×
Author


|---------------------------------------|
|----------------------------------h-p--|
|---7--------6---------9-------7--6-7-6-|
|---0-0-0-0--0-0-0-0-0-0-0-0-0-0--------|
|---------------------------------------|
|---------------------------------------|


|-----------------------------------|
|-----------------------------------|
|-----------------------------------|
|--7--------6---------9-------4-4-4-|
|--0-0-0-0--0-0-0-0-0-0-0-0-0-0-0-0-|
|-----------------------------------|


 rythem 1                           end 1
|-------------------|--------------------|
|-------------------|--------------------|
|---------------4---|------------------4-|
|--4-4-5-2-4-4--4-5-|-4-4-5-2-4-4------4-|
|--4-4-5-2-4-4--2-5-|-4-4-5-2-4-4------2-|
|--2-2-3-0-2-2----3-|-2-2-3-0-2-2-2-3----|


verse w/ rythem 1

	There's nothing I hate more than All the plastic
people
	With all their plastic promises and all their plastic
deals 
        They just can't be themselves and live their
own lives out
        They're just an imatation of what life's all
about




|--------|--------------------------|
|--------|--------------------------|
|-(4)----|-4--4--4--4--4-4--4-4-4-4-|
|-(4)----|-4--4--4--4--4-4--4-4-4-4-|
|-(2)----|-2--2--2--2--2-2--2-2-2-2-|
|--------|--------------------------|



   Rhy2
||------------------------|---------------------------------|
||------------------------|---------------------------------|
||-o---5-4----------------|---------------------------------|
||-o---3-2----4-3---------|---------------------------------|
||------------2-1----3-2--|---------------------------------|
||----------0-----0--1-0--|-0--0---0-0-0-0-0-0-0-0-0-0-0-0--|

                                                   End
2   3x
|---------------------|----------------------------------||
|---------------------|----------------------------------||
|--5-4----------------|--------------------------------o-||
|--3-2---4-3----------|--------------------------------o-||
|--------2-1-----4-5--|----------------------------------||
|------0------0--2-3--|-3--3--3-3-3-3-3-3-3-3-3-3-3-3----||



|---------------------|---------------------------------|
|---------------------|---------------------------------|
|--5-4----------------|---------------------------------|
|--3-2----4-3---------|---------------------------------|
|---------2-1----3-2--|---------------------------------|
|-------0-----0--1-0--|-0--0---0-0-0-0-0-0-0-0-0-0-0-0--|


                                       
|---------------------|----------|
|---------------------|----------|
|--5-4----------------|----------|
|--3-2---4-3----------|----------|
|--------2-1-----4-5--|----------|
|------0------0--2-3--|----------|

verse 2 w/ rythem 2


	Because of me, you are who you are
	sign your name and you'll go far
	I'm your freind I think you should 
	So sign your name, its for your own good
	HOW MANY TIMES HAVE YOU HEARD YOU HEARD TODAY?
	Some bogus piss on saying "let's do lunch babe."
        For them this bullshit, that's their whole
life
        cut with the bullshit with a knife
                                     (imatation of
life)



						4x
||----------------------|-------------------------||
||----------------------|-------------------------||
||-o--------------------|-----------------------o-||
||-o--7-----------------|-7---------------------o-||
||----7-----------------|-7-----------------------||
||----5-5-5-5-5-5-5-5-5-|-5--5-5-5-5-5-5-5-5-5----||

    wo-------------       oh---------------
    oh-------------------
   An----------------------ger    ----------
   burns--------




  verse 3. w/rhythem 2

	What ever happened to the guy I knew?
	A media creation a monster grew
	Our story had unhappy end
	But this could change, I still call him freind
	"take my advice listen to me"
	A great opportinity can't you see?
	I only want what's best for you
        The deal of a life time what more can I do
	HOW MANY TIMES HAVE YOU HEARD YOU HEARD TODAY?
	Some bogus piss on saying "let's do lunch babe."
        For them this bullshit, that's their whole
life
        cut with the bullshit with a knife
                                     (imatation of
life)




						4x
||----------------------|-------------------------||
||----------------------|-------------------------||
||-o--------------------|-----------------------o-||
||-o--7-----------------|-7---------------------o-||
||----7-----------------|-7-----------------------||
||----5-5-5-5-5-5-5-5-5-|-5--5-5-5-5-5-5-5-5-5----||

    wo-------------       oh---------------
    oh-------------------
   An----------------------ger    ----------
   burns--------



verse 3. W/rythem 2

	bands dress like women with hairspray and lace
	I'd pass an image law stick it in ther face
	Let's see how long they keep dressing this way
	Wearin this image twenty four hours a day

							4x
||----------------------------|----------------------------||
||----------------------------|----------------------------||
||-o--------------------------|--------------4--5--------o-||
||-o--9--9--9--9--9--9--9--9--|--9--9--9--9--2--3--4--5--o-||
||----7--7--7--7--7--7--7--7--|--7--7--7--7--------2--3----||
||----0--0--0--0--0--0--0--0--|--0--0--0--0----------------||

	1.
	2. Did you ever think for yourself?
	3.Just once did you ever think
	4 That's all I wanna know


							  8x	
||--------------------------|----------------------------------||
||--------------------------|----------------------------------||
||-o--10--9-----8--7--------|-10---9-----12---11---12----11--o-||
||-o--10--9-----8--7--------|-10---9-----12---11---12----11--o-||
||----8---7-----6--5--------|-8----7-----10---9----10----9-----||
||--------------------1-1-1-|----------------------------------||


      5. IMITATION OF LIFE,  Living out a lie
	 you'll never be right, imitation of life
         Why are we here you're taking up my space
	 The new imperfect race, imitation of life


  w/ solo							8x
||--------------------------|----------------------------------||
||--------------------------|----------------------------------||
||-o--10--9-----8--7--------|-10---9-----12---11---12----11--o-||
||-o--10--9-----8--7--------|-10---9-----12---11---12----11--o-||
||----8---7-----6--5--------|-8----7-----10---9----10----9-----||
||--------------------1-1-1-|----------------------------------||






						4x
||----------------------|-------------------------||
||----------------------|-------------------------||
||-o--------------------|-----------------------o-||
||-o--7-----------------|-7---------------------o-||
||----7-----------------|-7-----------------------||
||----5-5-5-5-5-5-5-5-5-|-5--5-5-5-5-5-5-5-5-5----||

    wo-------------       oh---------------
    oh-------------------
   An----------------------ger    ----------
   burns--------




  verse 3. w/rhythem 2

	What ever happened to the guy I knew?
	A media creation a monster grew
	Our story had unhappy end
	Theres one thing I hate more
	than all the platic people
	With alll their plastic promises
	And all their plastic deals
	they just can't be themselves
	and live their ouw lives out
	They just an imitation
        of what life's all about

	IMITATION OF LIFE


					 3x
||--------------------|----------------------||
||--------------------|----------------------||
||-o--------------4---|------------------4-o-||
||-o-4-4-5-2-4-4--4-5-|-4-4-5-2-4-4------4-o-||
||---4-4-5-2-4-4--2-5-|-4-4-5-2-4-4------2---||
||---2-2-3-0-2-2----3-|-2-2-3-0-2-2-2-3------||



|-----------------------------|------//--------
|-----------------------------|-----///--------
|--------------------------4--|-(4)///---------
|-4--4--5--2--4--4---------4--|-(4)//----------
|-4--4--5--2--4--4---------2--|-(2)/-----------
|-2--2--3--0--2--2--2--3------|----------------
				*slide out  :)
Suggest correction
What's this?
You can suggest a correction to this tab. Community and Mods will review your correction and vote to approve or reject it.
comments
We did not receive enough feedback on this tab! Please rate:
print report bad tab
1 2 3 4 5
guest
You may want to rate the tab now too:
select rating
Please do not post tabs as comments. Select "correction" instead!