Oops, an error
Loading. Please wait.

Inside Out Tab

version 1
version 1

Whole song

Interactive

4,564 views 1 this week
no commentswrite comment
1 2 3 4 5
excellent!
x 5
add to favorites
launch autoscroll
font size
0
reset
how to read this tab
guitar tuner
Tab Pro tools
  • play this tab
  • loop segment
  • change instrument
  • show fretboard
  • metronome
×
Best way to learn
"Inside Out"
Autoscroll
slow
fast
+/-
esc
set tempo
stop
Contributor
Notation:

10b12      = pick the 10th fret, then bend to the 12th fret.
10b12r10   = pick the 10th fret, then bend to the 12th fret,
             then release to the 10th fret.
[10]12r10  = bend to the 12th fret from the 10th fret, pick,
             then release to the 10th fret.
10b12 [14] = pick the 14th fret while holding the previous bend.

10b15*     = tremolo bar bend, from the 10th fret to the 15th fret.
7d2*       = tremolo bar dive, from the 7th fret to the 2nd fret. 
12~*       = tremolo bar vibrato.

x   =  mute with fret-hand
*   =  palm mute
X\\ =  pick slide
h   =  hammer-on
p   =  pull-off
~   =  vibrato
t   =  finger tap
/   =  slide up
\   =  slide down
h   =  natural harmonics
a   =  artificial harmonics
(9) =  ghost note
tm  =  trem picking
tr  =  trill



Tuning: Eb tuning with the 6 string dropped another whole step

Riff 1 (acoustic, maybe a 12 string)
Also, the chords at the end may be slighty distorted
eb|-----------------------------------------------------------|
Bb|----------------------------------3---3b4r3--3b4r3--1--3---|
Gb|-------0---------0----------------2---2b3r2--2b3r2--0--2-2-|
Db|-----2---------2------2---------0------------------------2-|
Ab|---3---------3----------3-----0----------------------------|
Db|-3---------3--------------3-0------------------------------|

eb|------------------------------|
Bb|----------------------------3-|
Gb|-------0---------0----------2-|
Db|-----2---------2------2-----0-|
Ab|---3---------3----------3---0-|
Db|-3---------3--------------3-0-|

Guitar 2
eb|-------------------------|
Bb|-7h8p7-------------------|
Gb|-------9--7--9-------7---|
Db|----------------10-----7-|
Ab|-------------------------|
Db|-------------------------|


Riff 2 (Distortion)
eb|-------------------------------------------------------|
Bb|-------------------------------------------------------|
Gb|-------------------------------------------------------|
Db|-------------------------------------------------------|
Ab|---------------------------------------------------1-1-|
Db|-2~-0-0-2~-0-2b3r2-0-2~-0-2b4r2-0-2~-0-2b3r2-0-0-0-1-1-|


Riff 2a
eb|-----|
Bb|-----|
Gb|-----|
Db|-----|
Ab|--0--|
Db|--0--|

eb|-----------------------|
Bb|-7h8p7-----------------|
Gb|-------9--7--9-------7-|
Db|----------------10-----|
Ab|-----------------------|
Db|-----------------------|


Riff 3
eb|----------------------------------------|
Bb|----------------------------------------|
Gb|--7-7-7-7-7-7-7-7-7b8-7-7-7-7-7-7-7-7b8-|
Db|----------------------------------------|
Ab|----------------------------------------|
Db|----------------------------------------|
     "I thought I knew..."
eb|-----------------------------------|
Bb|-----------------------------------|
Gb|--7-7-7-7-7-7-7-7-7b8-7-7-7-7-7-7--|
Db|-----------------------------------|
Ab|-----------------------------------|
Db|-----------------------------------|
     "I thought I knew..."

 
Riff 1a (Acoustic)
eb|-------------------------------------|
Bb|----------------------------------3--|
Gb|-------0---------0----------------2--|
Db|-----2---------2------2---------0----|
Ab|---3---------3----------3-----0------|
Db|-3---------3--------------3-0--------|
    "I've eaten..."

Riff 4 (Distortion)
eb|---------------------|
Bb|---------------------|
Gb|---------------------|
Db|---------------------|
Ab|-3-4-5--3-4-5--3-4-5-|
Db|---------------------|


Play Riff 2   "It's in my stomach..."


Riff 5
Guitar 1
eb|-----------------------------------|
Bb|-----------------------------------|
Gb|-----------------------------------|
Db|--0------------------------------0-|
Ab|--0------3-/8------3-/8------7---0-|
Db|--0------3-/8------3-/8------7---0-|
    "Goddamn nowhere..."

Final time
eb|--------------------------------|
Bb|--------------------------------|
Gb|--------------------------------|
Db|--0-----------------------------|
Ab|--0------3-/8------3-/8------7--|
Db|--0------3-/8------3-/8------7--|

Guitar 2
eb|--------------|
Bb|--------------|
Gb|-7-7-7-7-...--|
Db|--------------|
Ab|--------------|
Db|--------------|
    "Goddamn nowhere..."
eb|------------------|
Bb|------------------|
Gb|-11-11-11-11-...--|
Db|------------------|
Ab|------------------|
Db|------------------|
    "...inside looking..."
eb|--------------|
Bb|--------------|
Gb|-7-7-7-7-...--|
Db|--------------|
Ab|--------------|
Db|--------------|
    "...pride..."



Play Riff 4   "...out..."
Play Riff 2
Play Riff 2a  

Riff 3a
Guitar 1
eb|----------------------------------------|
Bb|----------------------------------------|
Gb|--7-7-7-7-7-7-7-7-7b8-7-7-7-7-7-7-7-7b8-|
Db|----------------------------------------|
Ab|----------------------------------------|
Db|----------------------------------------|
     "My only antidote..."
eb|-----------------------------------|
Bb|-----------------------------------|
Gb|--7-7-7-7-7-7-7-7-7b8-7-7-7-7-7-7--|
Db|-----------------------------------|
Ab|-----------------------------------|
Db|-----------------------------------|
     "Is physical pain..."

Guitar 2
eb|-----------------------|
Bb|-7h8p7-----------------|
Gb|-------9--7--9-------7-|
Db|----------------10-----|
Ab|-----------------------|
Db|-----------------------|


Riff 1a 
Guitar 1 (Acoustic)                    x2
eb|-------------------------------------|
Bb|----------------------------------3--|
Gb|-------0---------0----------------2--|
Db|-----2---------2------2---------0----|
Ab|---3---------3----------3-----0------|
Db|-3---------3--------------3-0--------|
    "I've eaten..."

Guitar 2
eb|-------------------------|
Bb|-7h8p7-------------------|
Gb|-------9--7--9-------7---|
Db|----------------10-----7-|
Ab|-------------------------|
Db|-------------------------|



Play Riff 4
Play Riff 2  "It's in my stomach..."
Play Riff 5  "Goddamn nowhere..."


RIff 6                          Final time
eb|-----------------------------|-------------|
Bb|-----------------------------|-------------|
Gb|-----------------------------|-------------|
Db|-----------------------------|-------------|
Ab|-----------------------------|-------------|
Db|-0-0-0-2~-0-2~-0-0-0-2~-0-2~-|--0-0-0-//\\-|
         

RIff 6a (Solo Rhythm)           Final time
eb|-----------------------------|----------|
Bb|-----------------------------|----------|
Gb|-----------------------------|----------|
Db|-----------------------------|----------|
Ab|-----------------------------|--------0-|
Db|-0-0-0-2~-0-2~-0-0-0-2~-0-2~-|--0-0-0-0-|


Riff 7 (Solo Rhythm)
eb|------------------------------------------------|
Bb|------------------------------------------------|
Gb|------------------------------------------------|
Db|------------------------------------------------|
Ab|----------------------3-/8-----------------3-/8-|
Db|-0-0-0-2~-0-2~-0-0-0--3-/8--2~-0-2~-0-0-0--3-/8-|

eb|---------------------------------------------|
Bb|---------------------------------------------|
Gb|---------------------------------------------|
Db|---------------------------------------------|
Ab|----------------7--0-------------------------|
Db|-2~-0-2~-0-0-0--7--0--0-0-2~-0-2~-0-0-0-//\\-|   


Play Riff 5   "Goddamn nowhere..."
Play Riff 4   "...out..."
Play Riff 5   "Goddamn nowhere..."

Ending           x4
eb|---------------|-----|
Bb|---------------|-----|
Gb|---------------|-----|
Db|---------------|-----|
Ab|-3-4-5--3-4-5--|--0--|
Db|---------------|--0--|
   "...out, out..."

AND THATS IT
comments
print report bad tab
I want to post or [tab]
guest
You may want to rate the tab now too:
select rating
Please do not post tabs as comments. Select "correction" instead!