Oops, an error
Loading. Please wait.

Madhouse bass

version 1
version 1

Whole song

Interactive

by Anthrax
5,419 views 6 this week
5 commentsread comments
1 2 3 4 5
x 5
add to favorites
×
Save as Personal and add changes to this tab that will be seen only by you. Learn more ›
×
You can save this tab as Personal to edit and correct it or add notes. All changes will be seen only by you. Learn more »
launch autoscroll
font size
0
reset
guitar tuner
backing track
0:00
0:00
edit
Autoscroll
slow
fast
+/-
esc
set tempo
stop
Author
Difficulty
Madhouse Bass Tab
Played by: Madhouse
Tabbed by: Brandon C.
email:CFlyboy14@aol.com
-------------------------------------------
Intro (Play after the first two riffs of the song)
G|---------------------------------------------------------------|
D|---------------------------------------------------------------|
A|---------------------------------------------------------------|
E|---0-0-0-0-0-0-0-0-0-0-0-0-0-0---------------------------------|


G|---------------------------------------------------------------|
D|----------------------------------------------------x3---------|
A|---------------------------------------------------------------|
E|---0-0-0-0-0-0-0-7-0-6-0-5-0-4-0-3-----------------------------|

Verse 1a "One comes to find me..."
G|---------------------------------------------------------------|
D|---------------------------------------------------------------|
A|---------------------------------------------------------------|
E|-----5--5-5-5--------------------------------------------------|

Verse 1b "Trapped in this nightmare..."
G|---------------------------------------------------------------|
D|---------------------------------------------------------------|
A|---------------------------------------------------------------|
E|---0-0-0-0-3-4-3-0-0-0-0-3-6-5-0-0-0-0-3-4-3-0-0-0-0-3-4-6-----|

Verse 1c "And I don't care..."
G|---------------------------------------------------------------|
D|---------------------------------------------------------------|
A|---------------------------------------------------------------|
E|--0-0-0-0-0-0-0-0-0-0-0-0--8-7-6-------------------------------|

Chorous "It's a Madhouse..."
G|---------------------------------------------------------------|
D|---------------------------------------------------------------|
A|---------------------------------------------------------------|
E|--7-06-05-04-000-7-06-05-04-0-0-0-0----------------------------|

Verse 2a "Five years behind me..."
G|---------------------------------------------------------------|
D|---------------------------------------------------------------|
A|---------------------------------------------------------------|
E|-----5--5-5-5--------------------------------------------------|

Verse 2b "Trapped in this nightmare..."
G|---------------------------------------------------------------|
D|---------------------------------------------------------------|
A|---------------------------------------------------------------|
E|---0-0-0-0-3-4-3-0-0-0-0-3-6-5-0-0-0-0-3-4-3-0-0-0-0-3-4-6-----|

Verse 2c "And I Don't care..."
G|---------------------------------------------------------------|
D|---------------------------------------------------------------|
A|---------------------------------------------------------------|
E|--0-0-0-0-0-0-0-0-0-0-0-0--8-7-6-------------------------------|

Chorous "'Cause it's a madhouse..."
G|---------------------------------------------------------------|
D|---------------------------------------------------------------|
A|---------------------------------------------------------------|
E|--7-06-05-04-000-7-06-05-04-0-0-0-0----------------------------|

Guitar Solo
G|---------------------------------------------------------------|
D|---------------------------------------------------------------|
A|---------------------------------------------------------------|
E|-----5--5-5-5--------------------------------------------------|

Chorous (end)
G|---------------------------------------------------------------|
D|---------------------------------------------------------------|
A|---------------------------------------------------------------|
E|--7-06-05-04-000-7-06-05-04-0-0-0-0----------------------------|
Suggest correction
Creating personal tab
Creating personal tab
You can edit any tab online and save it as your Personal.

You can edit, replace or remove any tab part or add personal notes – all changes will be seen only by you.

Personal tabs can be accessed anytime from any device, even offline.
Learn more »
comments
print report bad tab
5 comments total. Showing first comments.
0 reply
Alpha_Wolf 268 May 21, 2007 10:40 AM

Lol.

+1 reply
Alpha_Wolf 268 Jul 02, 2007 05:38 AM

...Not great.

0 reply
BassPlayerBoy 52 Jul 02, 2007 03:54 PM

Better than nothing, Alpha
I'll repost it better later

guest
You may want to rate the tab now too:
select rating
Wanna post a correction for this tab? Suggest correction