Oops, an error
Loading. Please wait.

Madhouse Tab

version 1
version 1

Whole song

Interactive

by Anthrax
136,541 views 108 this week
34 commentsread comments
1 2 3 4 5
x 63
add to favorites
launch autoscroll
font size
0
reset
how to read this tab
guitar tuner
backing track
0:00
0:00
×
Best way to learn
"Madhouse"
Autoscroll
slow
fast
+/-
esc
set tempo
stop
Author
Tuning
E A D G B E
Tuning: Standard

[Riff 1]
e|------------------------------------------------|
B|------------------------------------------------|
G|------------------------------------------------|
D|------------------------------------------------|
A|-2-----------------------------7----6---5---4---|
E|-0-0-0-0-0-0-0-0-0-0-0-0-0-0-0----7---6---5---4-|
     * * * * * * * * * * * * * * 
                                 x6
e|--------------------------------|
B|--------------------------------|
G|--------------------------------|
D|--------------------------------|
A|-2-------------7----6---5---4---|
E|-0-0-0-0-0-0-0----7---6---5---4-|
     * * * * * * 

e|---------------|
B|---------------|
G|---------------|
D|---------------|
A|-2-------------|
E|-0-0-0-0-0-0-0-|
     * * * * * * 

[Riff 2]
e|---------------------------------|
B|------3------------------------3-|
G|------2------------------------2-|
D|-4----0--2--4------------------0-|
A|-2-------0--2--2-2-2-2-2-2--5--0-|
E|----------------------------3----|
                 * * * * * * 
   "White coats..."

e|--------------------------------------------|
B|-----------------3------------------------3-|
G|-----------------2------------------------2-|
D|-4---------------0--2--4------------------0-|
A|-2--2-2-2-2-2-2-----0--2--2-2-2-2-2-2--5--0-|
E|---------------------------------------3----|
      * * * * * *           * * * * * * 
   "I live alone..."

[Riff 2a]
Guitar 1
e|--------------------------------------------|
B|-----------------3------------------------3-|
G|-----------------2------------------------2-|
D|-4---------------0--2--4------------------0-|
A|-2--2-2-2-2-2-2-----0--2--2-2-2-2-2-2--5--0-|
E|---------------------------------------3----|
      * * * * * *           * * * * * * 
   "World of confusion..."

Guitar 2
e|---------------------------------------------|
B|---------------------------------------------|
G|---------------------------------------------|
D|---------------------------------------------|
A|-2-2-2-2-2-2-2-2-2-2-2-2-2-2-2-2-2-2-2-2-2-2-|
E|---------------------------------------------|
   * * * * * * * * * * * * * * * * * * * * * * 

[Riff 3]
e|---------------------------------|
B|---------------------------------|
G|---------------------------------|
D|--------------------------3-2tr3-|
A|-2---------0---2-----------------|
E|-0-0-0-0-1---1-0--0-0-0-1--------|
     * * * * * *    * * * * 
   "Trapped..."

e|------------------------------|
B|------------------------------|
G|------------------------------|
D|----------------------------3-|
A|-2---------0---2----------2---|
E|-0-0-0-0-1---1-0--0-0-0-1-----|
     * * * * * *    * * * * 
   "I wish..."

e|---------------------------------|
B|---------------------------------|
G|---------------------------------|
D|--------------------------3-2tr3-|
A|-2---------0---2-----------------|
E|-0-0-0-0-1---1-0--0-0-0-1--------|
     * * * * * *    * * * * 
   "As my whole life..."

e|-----------------------------|
B|-----------------------------|
G|-----------------------------|
D|------------------------5----|
A|-2---------0---2--------3--6-|
E|-0-0-0-0-1---1-0--0-0-0----4-|
     * * * * * *    * * *

[Riff 4]
e|-----------------------------------------|
B|-----------------------------------------|
G|-------2-3-----3-2-------3h5p3p0-2h3p2p0-|
D|-2-----2-3-----3-2-----------------------|
A|-0-0-0-----0-0-----0-0-0-----------------|
E|-----------------------------------------|
     * *     * *     * * * 
   "...care..."

e|-------------------------------|
B|-------------------------------|
G|-------2-3-----3-2-------------|
D|-2-----2-3-----3-2-------5-4-3-|
A|-0-0-0-----0-0-----0-0-0-3-2-1-|
E|-------------------------------|
     * *     * *     * * * 
   "Gone without..."

[Riff 1a]
e|--------------------------------|
B|--------------------------------|
G|--------------------------------|
D|--------------------------------|
A|-7----6---5---4---2-------------|
E|----7---6---5---4-0-0-0-0-0-0-0-|
                      * * * * * * 
   "It's a madhouse..."

[Play Riff 2]   "My fears behind..."
[Play Riff 2a]  "Won't learn..."
[Play Riff 3]   "Trapped..."
[Play Riff 4]   "...care..."

[Riff 1b]                        x3
e|--------------------------------|
B|--------------------------------|
G|--------------------------------|
D|--------------------------------|
A|-7----6---5---4---2-------------|
E|----7---6---5---4-0-0-0-0-0-0-0-|
                      * * * * * * 
   "It's a madhouse..."

e|--------------------|
B|--------------------|
G|--------------------|
D|--------------------|
A|-7----6---5---4---2-|
E|----7---6---5---4-0-|
   "I'm insane..."

[Riff 2b] (Solo Rhythm)
e|----------------------|
B|------3-------------3-|
G|------2-------------2-|
D|-4----0--2--4----5--0-|
A|-2-------0--2----2--0-|
E|----------------------|

[Play Riff 3]   "Trapped..."
[Play Riff 4]   "...care..."
[Play Riff 1a]  "It's a madhouse..."
                       
[Ending]           x2
e|------------------|
B|------------------|
G|------------------|
D|------------------|
A|-7----6---5---4---|
E|----7---6---5---4-|
   "Mad madhouse..."

e|--------------------|
B|--------------------|
G|--------------------|
D|--------------------|
A|-7----6---5---4---2-|
E|----7---6---5---4-0-|
   "Mad mad mad madhouse."

AND THATS IT

************************************

| x   Dead note
| tr  Trill
| h   Hammer-on
| p   Pull-off
| *   Palm mute

************************************
Suggest correction
comments
print report bad tab
34 comments total. Showing first comments.
0 reply
threechordmondt 92 Oct 21, 2006 04:44 PM

Great tab, but a little hard to follw due to speed of song

+1 reply
deadlyMETAL 114 Dec 06, 2006 02:38 AM

The 'Trapped...' part is still confusing but this was very helpful.

0 reply
dustnbones316 40 Jan 24, 2007 01:05 PM

ughh does anyone now how to do the lead intro
i know he's using the whammy bar but i cant figure out what note hes playing and i cant find the tab for it anywhere is any help would be just super.
the rest of the tab is awesome

guest
You may want to rate the tab now too:
select rating
Wanna post a correction for this tab? Suggest correction