Oops, an error
Loading. Please wait.

Medusa Tab

version 1
version 1

Whole song

Interactive

by Anthrax
21,796 views 12 this week
2 commentsread comments
1 2 3 4 5
x 8
add to favorites
launch autoscroll
font size
0
reset
how to read this tab
guitar tuner
backing track
0:00
0:00
×
Best way to learn
"Medusa"
Autoscroll
slow
fast
+/-
esc
set tempo
stop
Author
Difficulty
advanced
Artist: Anthrax 
Song: Medusa

[Intro]
e|---------------------------------------------------------------------|
B|---------------------------------------------------------------------|
G|---------------------------------------------------------------------|
D|---------------------------------------------------------------------|
A|-4-4-4-4---5---4-4-4-4-4---5---4-4-4-4-4---5---4-4-4-4-4---5---4-4---|
E|-0-2-2---2---2-0-0-2-2---2---2-0-0-2-2---2---2-0-0-2-2---2---2-0-0---|
PM       |-| |-|         |-| |-|         |-| |-|         |-| |---------|

e|-------------------------------------------|
B|-------------------------------------------|
G|-------------------------------------------|
D|-----4--9-------4--9-------4--9-------4--9-|
A|-2-2-2--7-4-2-2-2--7-4-2-2-2--7-4-2-2-2--7-|
E|-0-0------0-0-0------0-0-0------0-0-0------|
PM        |-|        |-|        |-|
(Repeat the above)

[Verse 1]
e|---------------------------------------------------------------------|
B|---------------------------------------------------------------------|
G|---------------------------------------------------------------------|
D|---------------------------------------------------------------------|
A|-4-4-4-4---5---4-4-4-4-4---5---4-4-4-4-4---5---4-4-4-4-4---5---4-4---|
E|-0-2-2---2---2-0-0-2-2---2---2-0-0-2-2---2---2-0-0-2-2---2---2-0-0---|
PM       |-| |-|         |-| |-|         |-| |-|         |-| |---------|

e|-------------------------------------------|
B|-------------------------------------------|
G|-------------------------------------------|
D|-----4--9-------4--9-------4--9-------4--9-|
A|-2-2-2--7-4-2-2-2--7-4-2-2-2--7-4-2-2-2--7-|
E|-0-0------0-0-0------0-0-0------0-0-0------|
PM        |-|        |-|        |-|
(Repeat the above)

[Interlude 1] x2 
e|--------------------------------------------------|
B|--------------------------------------------------|
G|--------------------------------------------------|
D|-------------------2------------------------4--5--|
A|-2-4--2-4---2-4--4-0--2---2-4--2-4---2-4--4-2--3--|
E|-0-2--0-2---0-2--2----0---0-2--0-2---0-2--2-------|

[Verse 2]
e|---------------------------------------------------------------------|
B|---------------------------------------------------------------------|
G|---------------------------------------------------------------------|
D|---------------------------------------------------------------------|
A|-4-4-4-4---5---4-4-4-4-4---5---4-4-4-4-4---5---4-4-4-4-4---5---4-4---|
E|-0-2-2---2---2-0-0-2-2---2---2-0-0-2-2---2---2-0-0-2-2---2---2-0-0---|
PM       |-| |-|         |-| |-|         |-| |-|         |-| |---------|

e|-------------------------------------------|
B|-------------------------------------------|
G|-------------------------------------------|
D|-----4--9-------4--9-------4--9-------4--9-|
A|-2-2-2--7-4-2-2-2--7-4-2-2-2--7-4-2-2-2--7-|
E|-0-0------0-0-0------0-0-0------0-0-0------|
 |PM       |-|        |-|        |-|

[Guitar 2]
e|----------------------------------------------------------------15(17)(15)----15(17)~-|
B|--------14(15)(14)-----------------------14(15)(14)-14p12----12------------12---------|
G|--------14(15)(14)---14(15)(14)-14p12---------------------14--------------------------|
D|--------------------------------------14----------------------------------------------|
A|--------------------------------------------------------------------------------------|
E|--------------------------------------------------------------------------------------|
((Repeat the above (without Gtr 2))

[Interlude 2]
same as Interlude I except that a second guitar pick slides down the neck 
the strings B & G at a point in the interlude (listen to the song for timing)

[Bridge 1]
e|-----------------------------------------------------------------------|
B|-----------------------------------------------------------------------|
G|-----------------------------------------------------------------------|
D|---------5-------------------------------------------------------------|
A|-7-7-7-7----7-6-5---------5----------------3----------------5----------|
E|------------------7-7-7-7----7-6-5-5-5-5-5----5-4-3-7-7-7-7----5-6-7---|
 |PM------|        |-------|        |-------|        |-------------------|

[Guitar 2]
e|-----------------------------------------------------19~~~~~-|
B|-------------------------------------------------------------|
G|-------------------------------------------------------------|
D|-------------------------------------------------------------|
A|-------------------------------------------------------------|
E|-------------------------------------------------------------|

e|------------------------------------------------------|
B|------------------------------------------------------|
G|------------------------------------------------------|
D|---------5--------------------------------------------|
A|-7-7-7-7----7-6-5---------5----------------3----------|
E|------------------7-7-7-7----7-6-5-5-5-5-5----5-4-3---|
PM|-------|        |-------|        |-------------------|

[Chorus 1] x4
e|---------------------------------|
B|---------------------------------|
G|---------------------------------|
D|-------2-------------------------|
A|-4-4-4-0-4-2-4-x-xxx-xxx-xxx-xxx-|
E|-2-2-2---2-0-2—x-xxx-xxx-xxx-xxx-|

[Verse 3] 
(same as Verse 2)

[Interlude 3]
(same as Interlude I except that the following is added by a second guitar 
to the song for timing):

e|----------------------------|
B|-14(15)(14)—17(19)(18)(19)--|
G|-14(15)(15)-----------------|
D|----------------------------|
A|----------------------------|
E|----------------------------|

[Solo] x3
(same as Chorus 1) (x4)
(Then it changes to the same as the interlude riff) (x4)

e|-19~-----------------------------|-14-17-17-16-16-14-14-------------------|---------|
B|-----------19~~-\-17~--17-19~~-\-|----------------------17-17-16-16-14-14-|-17(19)~-|
G|------16~------------------------|----------------------------------------|---------|
D|---------------------------------|----------------------------------------|---------|
A|---------------------------------|----------------------------------------|---------|
E|---------------------------------|----------------------------------------|---------|

                                  (x3)
e|-9-12-12-11-11-9-9-----------------|-20(21)~~|
B|-------------------12-12-11-11-9-9-|---------|
G|-----------------------------------|---------|
D|-----------------------------------|---------|
A|-----------------------------------|---------|
E|-----------------------------------|---------|

e|-2-2-2p0-0-0-0-2h4--4-4-4p2-2-2-2-4/5--5-5-5p4-4-4-4-5/7--7-7-7p5-5-5-5-7/9--|
B|-----------------------------------------------------------------------------|
G|-----------------------------------------------------------------------------|
D|-----------------------------------------------------------------------------|
A|-----------------------------------------------------------------------------|
E|-----------------------------------------------------------------------------|

e|-9-9-9p7-7-7-7-9/10--10-10-10p9-9-9-9-10/12--12-12-12p10-10-10-10-12/14--|
B|-------------------------------------------------------------------------|
G|-------------------------------------------------------------------------|
D|-------------------------------------------------------------------------|
A|-------------------------------------------------------------------------|
E|-------------------------------------------------------------------------|

e|-----------------------------17(19)-17p14-------------14----------------------|
B|-14-----17—17(19)(18)(19)~~---------------------------------------------------|
G|-----17-----------------------------------18~--16(17)----16p14-16p15p14----14-|
D|------------------------------------------------------------------------16----|
A|------------------------------------------------------------------------------|
E|------------------------------------------------------------------------------|

e|----------------------------------------------------------------------------|
B|----------------------------------------------------------------------------|
G|----------------------------14-16-14~--4-2-4(6)(4)---4(6)(6)(6)(6)(6)(6)(6)-|
D|-16p15p14----14-16p15p14-16-------------------------------------------------|
A|----------16----------------------------------------------------------------|
E|----------------------------------------------------------------------------|

e|--------------------------------------------------------------|
B|--------------------------------------------------------------|
G|--(6)—(6)—(6)—(6)(4)~---------11-9----------------------------|
D|-----------------------10(11)------11-10-9-7------------------|
A|---------------------------------------------9-8-7------------|
E|---------------------------------------------------9-8-7-5-2~-|

e|----------------------------------------------------------------------------|
B|----------------------------------------------------------------------------|
G|----------------------------------------------------------------------------|
D|-4--4-4-4/6--6-6-6/7--7-7-7/9--9-9-9/11-11-11-11/12-12-12-12/14-14-14-14/16-|
A|----------------------------------------------------------------------------|
E|----------------------------------------------------------------------------|

e|-------------------------------------19(21)(20)~~~~~~~-|
B|-------------------------------------------------------|
G|-------------------------------------------------------|
D|-16-16-16/17-17-17-17/19--16--19--16-------------------|
A|-------------------------------------------------------|
E|-------------------------------------------------------|End Solo

[Verse 4] 
e|---------------------------------------------------------------------|
B|---------------------------------------------------------------------|
G|---------------------------------------------------------------------|
D|---------------------------------------------------------------------|
A|-4-4-4-4---5---4-4-4-4-4---5---4-4-4-4-4---5---4-4-4-4-4---5---4-4---|
E|-0-2-2---2---2-0-0-2-2---2---2-0-0-2-2---2---2-0-0-2-2---2---2-0-0---|
PM       |-| |-|         |-| |-|         |-| |-|         |-| |---------|

e|-------------------------------------------|
B|-------------------------------------------|
G|-------------------------------------------|
D|-----4--9-------4--9-------4--9-------4--9-|
A|-2-2-2--7-4-2-2-2--7-4-2-2-2--7-4-2-2-2--7-|
E|-0-0------0-0-0------0-0-0------0-0-0------|
PM        |-|        |-|        |-|
(Repeat the above)

[Interlude 4]
(same as Interlude I except that the following is added by a second guitar 
to the song for timing):

e|--------------------|
B|-17(19)(18)(19)~~~--|
G|--------------------|
D|--------------------|
A|--------------------|
E|--------------------|

[Chorus 1] x4
e|---------------------------------|
B|---------------------------------|
G|---------------------------------|
D|-------2-------------------------|
A|-4-4-4-0-4-2-4-x-xxx-xxx-xxx-xxx-|
E|-2-2-2---2-0-2—x-xxx-xxx-xxx-xxx-|

[Outro]
e|-------------------------------------------------------------|
B|-------------------------------------------------------------|
G|-------------------------------------------------------------|
D|-------2--------------2--------------2--------------2--------|
A|-4-2-4-0-4-2-4--4-2-4-0-4-2-4--4-2-4-0-4-2-4--4-2-4-0-4-2-4--|
E|-2-0-2---2-0-2--2-0-2---2-0-2--2-0-2---2-0-2--2-0-2---2-0-2--|

At the end a second guitar adds the following (listen to the song for timing):

e|--------------------|
B|--------------------|
G|--------------------|
D|-19d-----\----------|
A|--------------------|
E|--------------------|


************************************

| (n)  Ghost note
| p    Pull-off
| ~    Vibrato
| x    Dead note
| \    Slide down
| h    Hammer-on
| /    Slide up

************************************
Suggest correction
comments
print report bad tab
2 comments total.
+1 reply
daveybaby 10 Apr 15, 2008 05:33 AM

Great tab man, even if I am sitting right beside you, therefore this comment is pointless....oh well!

0 reply
binadra1234 5,536 May 14, 2013 10:07 AM

Meeeedddddddusssssssaaa!!!!!! Thank you for great tab!

guest
You may want to rate the tab now too:
select rating
Wanna post a correction for this tab? Suggest correction