Oops, an error
Loading. Please wait.

Nobody Knows Anything Tab

1,558 views 1 this week
no commentswrite comment
1 2 3 4 5
1 last vote to show rating
add to favorites
launch autoscroll
font size
0
reset
how to read this tab
guitar tuner
Autoscroll
slow
fast
+/-
esc
set tempo
stop
Help us to improve Ultimate-Guitar.com Take our survey!
×
Author
Difficulty
Tuning
intermediate
D# G# C# F# A# D#
Song - Nobody Knows Anything
Band - Anthrax
Tuning - Drop Db (whole guitar half a step down and then tune to drop D)
Tabbed by - Killabob
Surprised nobody has tabbed this song out yet, here it is, im afraid i
cannot guarantee 100% accuracy because i did it by ear, but i think it
sounds right. Enjoy :)

Intro part 1

e:--------|
B:--------|
G:--------|
D:0---0---|
A:0---0---|
D:0---0---|

Intro part 2

e:---------------------------------|
B:---------------------------------|
G:---------------------------------|
D:0---0---00000-0-00000-0-00000-0--|
A:0---0---00000-0-00000-0-00000-0--|
D:0---0---00000-0-00000-0-00000-0--|
Palm mute ^------------------------|

Verse
e:-------------------------------|
B:-------------------------------|
G:-------------------------------|
D:0---0---6--5h6-5---6--5h6-5----|
A:0---0---6--5h6-5---6--5h6-5----|
D:0---0---6--5h6-5---6--5h6-5----|
For the second half of the verse, let all chords ring

Chorus
e:------------------------------------|
B:------------------------------------|
G:------------------------------------|
D:0---0---5/6-5/6-5--3---3---5--5--6--|
A:0---0---5/6-5/6-5--3---3---5--5--6--|
D:0---0---5/6-5/6-5--3---3---5--5--6--|
the 4th time stop here ^

Intro (part 1) again

Verse (part 1 and 2) again

Chorus x2

Bridge part 1
guitar 1 plays intro part 1 again, the other messes with the whammy bar :)

Bridge part 2
guitar 1
e:----------------|
B:----------------|
G:----------------|
D:----------------|
A:----------------|
D:0000000000000000
play twice palm muted

Solo
Guitar 1 plays chorus riff, guitar 2 plays
e:20b22---22--22--22--22--------------------------------------|
B:------------------------------------------------------------|
G:-----------------------------12-12-14/16-16---16/19-19--19--|
D:------------------------------------------------------------|
A:-----------------------------10-10-10/12-12---12/15-15--15--|
D:------------------------------------------------------------|

e:13-----13----13--------------12-10-------12-10-------12-10-------|
B:----17----17----15-----10-13-------13-10-------13-10-------13-10-|
G:-----------------------------------------------------------------|
D:-----------------------------------------------------------------|
A:-----------------------------------------------------------------|
D:-----------------------------------------------------------------|

e:13-10-------13-10--------15-13--------------------------13-15b17r13----------13-15b17--|
B:------13-10-------13-10--------15-13-15-----------13-15--------------15-13-15----------|
G:--------------------------------------------12-14--------------------------------------|
D:---------------------------------------------------------------------------------------|
A:---------------------------------------------------------------------------------------|
D:---------------------------------------------------------------------------------------|

whammy at the end

then 2 choruses and end :)
Suggest correction
Give kudos to tab author, rate the tab!
1 2 3 4 5
comments
print report bad tab
guest
You may want to rate the tab now too:
select rating
Wanna post a correction for this tab? Suggest correction