Oops, an error
Loading. Please wait.

One World Tab

version 1
version 1

Whole song

Interactive

3,859 views 3 this week
no commentswrite comment
1 2 3 4 5
excellent!
x 3
add to favorites
launch autoscroll
font size
0
reset
how to read this tab
guitar tuner
Autoscroll
slow
fast
+/-
esc
set tempo
stop
Help us to improve Ultimate-Guitar.com Take our survey!
×
Anthrax:  One World

transcribed by: Russ Elton (anthraxtabs@yahoo.com)
with help from: Brian Van Maurik (bmvst7@pitt.edu)

        ________________________________________________
       |                                                |
       |            Spreading The Disease:              |
       |           The Home of Anthrax Tabs             | 
       |                                                |
       |      http://www.geocities.com/anthraxtabs/     |
       |                                                |
       |________________________________________________|

Date last modified: 11/18/00
  
PLEASE DO NOT COPY THIS TAB TO ANOTHER SITE 
WITHOUT AUTHORS' PERMISSION.  THANK YOU

Tuning: Standard

Riff 1                        x2
e|-----------------------------|
B|-----------------------------|
G|-----------------------------|
D|--7-10--7--9-----------------|
A|--5--8--5--7---------7-7-7-7-|
E|-----------------------------|
                       * * * *

Riff 2          x4
e|---------------|
B|---------------|
G|---------------|
D|--7-10--7--9---|
A|--5--8--5--7---|
E|---------------|

Riff 3 (Didn't get the harmony guitar yet)
e|-------------------------------|
B|-------------------------------|
G|--------------9h10-9~~---------|
D|-7-10--7--9------------6h7-6~~-|
A|-5--8--5--7--------------------|
E|-------------------------------|

Riff 4
e|--------------------------|
B|--------------------------|
G|--------------------------|
D|-7-10--7--9---8---7---6---|
A|-5--8--5--7---6---5---4---|
E|--------------------------|

Riff 5
e|--------------------------------------------------|
B|--------------------------------------------------|
G|--------------------------------------------------|
D|----------------------------------------------8-7-|
A|---------8-8---------7-7---------6-6----------6-5-|
E|-300-300-6-6-300-300-5-5-300-300-4-4-30003000-----|
   *** ***     *** ***     *** ***     ********

Riff 6
e|-------------------------------------------------|
B|-------------------------------------------------|
G|-------------------------------------------------|
D|---------------------------------------------8-7-|
A|---------8-8---------7-7---------6-6---------6-5-|
E|-3-0-3-0-6-6-0-0-0-0-5-5-3-3-3-3-4-4-3-0-3-0-----|
   * * * *     * * * *     * * * *     * * * * 

Riff 7
e|-----------------------------|
B|-----------------------------|
G|-----------------------------|
D|-----------------------------|
A|----------5---5------------5-|
E|-8760-0-0-3-0-3-8760-0-0-0-3-|
   **** * *       **** * * *   

Riff 8
e|-----------------------------------|
B|-----------------------------------|
G|-----------------------------------|
D|-------------------------9---9---9-|
A|-2---------5---6---7-----7---7---7-|
E|-0-0-0-0-0-3-0-4-0-5-0-0---0---0---|
     * * * *   *   *   * *   *   * 
e|--------------------------------|
B|--------------------------------|
G|--------------------------------|
D|-----------------------7-10-7-9-|
A|---------5---6---7-----5--8-5-7-|
E|-0-0-0-0-3-0-4-0-5-0-0----------|
   * * * *   *   *   * *    
e|---------------------------------|
B|---------------------------------|
G|---------------------------------|
D|-----------------------9---9---9-|
A|---------5---6---7-----7---7---7-|
E|-0-0-0-0-3-0-4-0-5-0-0---0---0---|
   * * * *   *   *   * *   *   * 
e|-----------------------|
B|-----------------------|
G|-----------------------|
D|-----------------------|
A|---------5---6---7-----|
E|-0-0-0-0-3-0-4-0-5-0-0-|
   * * * *   *   *   * *    

Play Riff 2
Play Riff 5
Play Riff 6
Play Riff 7
Play Riff 8
Play Riff 2

Riff 9
e|--------------------------------------|
B|--------------------------------------|
G|--------------------------------------|
D|-7--9--7--9\-------7--9--7--12\-------|
A|-5--7--5--7\--2-2--5--7--5--10\--2-2--|
E|--------------0-0----------------0-0--|

e|------------------------------------------|
B|------------------------------------------|
G|------------------------------------------|
D|-7--9--7--9\------------------------------|
A|-5--7--5--7\--7--9--7--9\--5-6-7--8\--2-2-|
E|--------------5--7--5--7\--3-4-5--6\--0-0-|


Riff 8a (solo rhythm)             x3
e|---------------------------------|
B|---------------------------------|
G|---------------------------------|
D|-----------------------9---9---9-|
A|---------5---6---7-----7---7---7-|
E|-0-0-0-0-3-0-4-0-5-0-0---0---0---|
   * * * *   *   *   * *   *   * 
e|--------------------------------|
B|--------------------------------|
G|--------------------------------|
D|-----------------------7-10-7-9-|
A|---------5---6---7-----5--8-5-7-|
E|-0-0-0-0-3-0-4-0-5-0-0----------|
   * * * *   *   *   * *          x3
e|---------------------------------|
B|---------------------------------|
G|---------------------------------|
D|-----------------------9---9---9-|
A|---------5---6---7-----7---7---7-|
E|-0-0-0-0-3-0-4-0-5-0-0---0---0---|
   * * * *   *   *   * *   *   * 
e|-----------------------|
B|-----------------------|
G|-----------------------|
D|-----------------------|
A|---------5---6---7-----|
E|-0-0-0-0-3-0-4-0-5-0-0-|
   * * * *   *   *   * * 

Play Riff 2
Play Riff 5
Play Riff 6
Play Riff 7
Play Riff 8
Play Riff 2

Riff 4a
e|---------------------|
B|---------------------|
G|---------------------|
D|-7-10--7--9---8---7--|
A|-5--8--5--7---6---5--|
E|---------------------|


Riff 10
e|----------------------------------|
B|----------------------------------|
G|----------------------------------|
D|-7-10--7--9-------8-------7-------|
A|-5--8--5--7-------6-------5-------|
E|------------0-0-0---0-0-0---0-0-0-|
              * * *   * * *   * * * 

Ending
e|-------------|
B|-------------|
G|-------------|
D|-7-10--7--9\-|
A|-5--8--5--7\-|
E|-------------|


notation:
^   =  bend [ ^ = half, ^^ = whole, etc. ]
^r  =  bend and release
x   =  mute with fret-hand
*   =  mute with palm-hand
X\\ =  pick slide
h   =  hammer-on
p   =  pull-off
~   =  vibrato
t   =  tap-on
/   =  slide up
\   =  slide down
h.  =  harmonics
ah  =  artificial harmonic
(9) =  ghost note
tm  =  trem picking
tr  =  trill
Suggest correction
Give kudos to tab author, rate the tab!
1 2 3 4 5
comments
print report bad tab
guest
You may want to rate the tab now too:
select rating
Please do not post tabs as comments. Select "correction" instead!