Oops, an error
Loading. Please wait.

Potters Field Tab

version 1
version 1

Whole song

Interactive

1,189 views 6 this week
no commentswrite comment
1 2 3 4 5
please rate
add to favorites
launch autoscroll
font size
0
reset
how to read this tab
guitar tuner
Autoscroll
slow
fast
+/-
esc
set tempo
stop
Help us to improve Ultimate-Guitar.com Take our survey!
×
Tab for Potter's Field by Anthrax


Riff 1 (Intro)

e|------------------------|------------------------|
B|------------------------|------------------------|
G|------------------------|------------------------|
D|------------------------|------------------------|
A|------------------------|------------------------|
E|-2-2-2-2-----2-2-2-2----|-2-2-2-2-----2-2-2-2----|


Riff 2a Play this a few times then with Riff 2b

e|------------------------|------------------------|
B|------------------------|------------------------|
G|------------------------|------------------------|
D|------------------------|------------------------|
A|-2-4---------2-4--------|-2-4---------2-4--------|
E|-0-2-2-2-2-2-0-2-2-2-2-2|-0-2-2-2-2-2-0-2-2-2-2-2|


Riff 2b

e|------------------------|------------------------|------------------------|
B|------------------------|------------------------|------------------------|
G|-11---------------------|------------------------|-12---------------------|
D|-11---------------------|------------------------|-12---------------------|
A|-9----------------------|------------------------|-10---------------------|
E|------------------------|------------------------|------------------------|


e|------------------------|
B|------------------------|
G|------------------------|
D|------------------------|
A|------------------------|
E|------------------------|



Riff 3 (this is the first verse)

e|---------------------------------|
B|---------------------------------|
G|---------------------------------|
D|---------------------------------|
A|-----2-------4-------4-------4---|
E|-0-2---2---0-2-----0-2-----0-2---|


Riff 4 (Chorus)

e|---------------------------------|---------------------------------|
B|---------------------------------|---------------------------------|
G|---------------------------------|---------------------------------|
D|-----------5---------------------|---------------------------------|
A|-----2-----5---------------------|-----2-------4-------4-------4---|
E|-0-2---2---3---------------------|-0-2---2---0-2-----0-2-----0-2---|


e|---------------------------------|---------------------------------|
B|---------------------------------|---------------------------------|
G|---------------------------------|---------------------------------|
D|-----------5---------------------|-7-------------------------------|
A|-----2-----5---------------------|-7-----------4-------4-------4---|
E|-0-2---2---3---------------------|-5---------0-2-----0-2-----0-2---|


e|---------------------------------|---------------------------------|
B|---------------------------------|---------------------------------|
G|---------------------------------|---------------------------------|
D|-----------5---------------------|---------------------------------|
A|-----2-----5---------------------|-----2-------4-------4-------4---|
E|-0-2---2---3---------------------|-0-2---2---0-2-----0-2-----0-2---|

                                                                      
e|---------------------------------|---------------------------------|
B|---------------------------------|---------------------------------|
G|---------------------------------|---------------------------------|
D|-----------5---------------------|-7-------------------------------|
A|-----2-----5---------------------|-7---------4--4--4--4--4--4--4--4|
E|-0-2---2---3---------------------|-5---------2--2--2--2--2--2--2--2|

e|------------------|
B|------------------|
G|------------------|
D|------------------|
A|-4--4--4--4--4--4-|
E|-2--2--2--2--2--2-|

Riff 5 (Play this after the first chorus then go back to the chorus)

e|---------------------------------|---------------------------------|
B|---------------------------------|---------------------------------|
G|---------------------------------|---------------------------------|
D|---------------------------------|---------------------------------|
A|-----2-------4-------4-------4---|-----2-------5-------5-------5---|
E|-0-2---2---0-2-----0-2-----0-2---|-0-2---2---0-3-----0-3-----0-3---|


Riff 6 (Play this after the second chorus)

e|---------------------|-----------------|----------------------|
B|---------------------|-----------------|----------------------|
G|---------------------|-----------------|----------------------|
D|---------------------|-----------------|----------------------|
A|-4-----4-4-4-4-4-4-4-|-4-4-4-4-4-4-4-4-|----------------------|
E|-2-333-2-2-2-2-2-2-2-|-2-2-2-2-2-2-2-2-|0-5---0-5---0-5---0-5-|


Riff 7                                                 
                                                                         
e|--------------------------|-------------------------|
B|--------------------------|-------------------------|
G|--------------------------|-------------------------|
D|--------------------------|-------------------------|
A|-4--4--4--4--4--4--4------|-4--4--4--4--4--4--4--4--|
E|-2--2--2--2--2--2--2--333-|-2--2--2--2--2--2--2--2--|

______________________ ______________________
                  1.2.|                    3.|
----------------------|----------------------|
----------------------|----------------------|
----------------------|----------------------|
----------------------|----------------------|
----------------------|----------------------|
0-5---0-5---0-5---0-5-|0-5---0-4---0-3---0-0-|


Riff 8 (this is the riff before the solo)

e|--------------------------|-------------------------|
B|--------------------------|-------------------------|
G|--------------------------|-------------------------|
D|--------------------------|-------------------------|
A|--------------------------|-------------------------|
E|-222--222--222--222--222--|-222--222-222--222--222--|

There are some high notes that go along with this, but
I didn't figure them out.

Riff 9 (the verse after the solo)

e|-------------------------|---------------------------|
B|-------------------------|---------------------------|
G|-------------------------|---------------------------|
D|-------------------------|--------------------------4|
A|---3-2-----3-2-----3-2---|---3-2-----4----4----4----4|
E|-0-----0-2-----0-2-----0-|-2-----0-0-2--0-2--0-2--0-2|


Also, I didn't tab out the solo. 
I think you can figure out where each riff goes if you 
listen to the song.
Suggest correction
What's this?
You can suggest a correction to this tab. Community and Mods will review your correction and vote to approve or reject it.
comments
We did not receive enough feedback on this tab! Please rate:
print report bad tab
1 2 3 4 5
guest
You may want to rate the tab now too:
select rating
Please do not post tabs as comments. Select "correction" instead!