Oops, an error
Loading. Please wait.

Soldiers Of Metal Tab

version 1
version 1

Whole song

Interactive

2,032 views 1 this week
1 commentread comment
1 2 3 4 5
excellent!
x 4
add to favorites
launch autoscroll
font size
0
reset
how to read this tab
guitar tuner
Autoscroll
slow
fast
+/-
esc
set tempo
stop
Help us to improve Ultimate-Guitar.com Take our survey!
×
Author
G|-10---9-|-5---2-||-7-----------7-----------|
D|-10---9-|-5---2-||-7-----------7-----------|
A|-8----7-|-3---0-||-5---5-5-5-5-5--5-5-5-5--|
E|--------|-------||-------------------------|

G|-7------------5----------|-7----------7----------|
D|-7------------5----------|-7----------7----------|
A|-5---5-5-5-5--3--3-3-3-3-|-5--5-5-5-5-5--5-5-5-5-|
E|-------------------------|-----------------------|

        End 1  4X  Rhy 2 
G|--------2---5--||-9-----------9-------|
D|-3---5--2---5--||-9-----------9-------|
A|-3---5--0---3--||-7-7-7-7-7-7-7-7-7-7-|
E|-1---3---------||---------------------|

                                                    
End 2  
G|-9----------7-----------|-9---------9----------|----2--4--5--||
D|-9----------7-----------|-9---------9----------|-5--2--4--5--||
A|-7--7-7-7-7-5---5-5-5-5-|-7-7-7-7-7-7--7-7-7-7-|-5--0--2--3--||
E|------------------------|----------------------|-3-----------||


Verse  Rhy 3
G|-----------------------|------------------------|
D|-4----------4----------|-4----------------------|
A|-4----------4----------|-4----------------------|
E|-2--2-2-2-2-2--2-2-2-2-|-2--2-2-2-2-2-2-3-3-3-2-|

We-----------------------                 are fighting
For                        Your


                                       End 3  2x
G|-----------------------|------------5-5------|
D|-4-----------4---------|-4----------5-5------|
A|-4-----------4---------|-4----------3-3------|
E|-2--2-2-2-2--2-2-2-2-2-|-2--2-2-2-2----------|

  (2ndTime)  Lives





Rhy 4
G|-2----------2----------|-2--------------|
D|-2----------2----------|-2----------5-5-|
A|-0--0-0-0-0-0--0-0-0-0-|-0-0-0-0-0--5-5-|
E|-----------------------|------------3-3-|
  Oo--------------------- we   are   the
  in--------------the line---------of fire

                                     End 4 2x
G|-2----------2----------|-2----------5-5-|
D|-2----------2----------|-2----------5-5-|
A|-0--0-0-0-0-0--0-0-0-0-|-0--0-0-0-0-3-3-|
E|-----------------------|----------------|

(1st)  soilders----------------


 Rhy 5
G|-7----------7----------|-7----------5----------|
D|-7----------7----------|-7----------5----------|
A|-5--5-5-5-5-5--5-5-5-5-|-5--5-5-5-5-3--3-3-3-3-|
E|-----------------------|-----------------------|
           Down in   the  Trenches
           the time is  approaching

                                      End 5
G|-7----------7----------|-7----------10-10--|
D|-7----------7----------|-7----------10-10--|
A|-5--5-5-5-5-5--5-5-5-5-|-5--5-5-5-5-8--8---|
E|-----------------------|-------------------|
           We wait for the night
           we're ready to strike-------


G|-2----------2----------|-2--------------|
D|-2----------2----------|-2----------5-5-|
A|-0--0-0-0-0-0--0-0-0-0-|-0-0-0-0-0--5-5-|
E|-----------------------|------------3-3-|

G|-2----------2----------|-2----------5-7-|
D|-2----------2----------|-2----------5-7-|
A|-0--0-0-0-0-0--0-0-0-0-|-0--0-0-0-0-3-5-|
E|-----------------------|----------------|

Rhy 3
G|-----------------------|------------------------|
D|-4----------4----------|-4----------------------|
A|-4----------4----------|-4----------------------|
E|-2--2-2-2-2-2--2-2-2-2-|-2--2-2-2-2-2-2-3-3-3-2-|
             we'll stop at nothin             
             Born to raise hell

                                       End 3  4x
G|-----------------------|------------5-5------|
D|-4-----------4---------|-4----------5-5------|
A|-4-----------4---------|-4----------3-3------|
E|-2--2-2-2-2--2-2-2-2-2-|-2--2-2-2-2----------|
        There's no holding back
        We win Attack----------------





          w/solo
          Rhy 6
G|-----|-4----------4----------|-4----------5--5-|
D|-4---|-4----------4----------|-4----------5--5-|
A|-4---|-2--2-2-2-2-2--2-2-2-2-|-2--2-2-2-2-3--3-|
E|-2---|-----------------------|-----------------|


                                     End 6
G|-4----------4----------|-4----------7--7-|
D|-4----------4----------|-4----------7--7-|
A|-2--2-2-2-2-2--2-2-2-2-|-2--2-2-2-2-5--5-|
E|-----------------------|-----------------|



G|-4----------4----------|-4----------5--5-|
D|-4----------4----------|-4----------5--5-|
A|-2--2-2-2-2-2--2-2-2-2-|-2--2-2-2-2-3--3-|
E|-----------------------|-----------------|


                                  
G|-4----------4----------|-4----------10-10--|
D|-4----------4----------|-4----------10-10--|
A|-2--2-2-2-2-2--2-2-2-2-|-2--2-2-2-2-8--8---|
E|-----------------------|-------------------|


G||-7---|-(7)----10-10-|-7--|-(7)---12--12--||-7----|
D||-7---|-(7)----10-10-|-7--|-(7)---12--12--||-7----|
A||-5---|-(5)----8--8--|-5--|-(5)---10--10--||-5----|
E||-----|--------------|----|---------------||------|


  Rhy 7
G|-2----------2----------|-2----------8--7-|
D|-2----------2----------|-2----------8--7-|
A|-0--0-0-0-0-0--0-0-0-0-|-0--0-0-0-0-6--5-|
E|-----------------------|-----------------|
3x vocals
 Pounding away            tearing through flesh
  Soilders of Metal         Fight to the death


                                         End 7 4x
G|-2----------------------|-------------12-14--|
D|-2----------------------|-------------12-14--|
A|-0--0-0-0-0-0-0-0-0-0-0-|-0-0-0-0-0-0-10-12--|
E|------------------------|--------------------|
          

w/Rhy 3 (2x)

 Blasting the cannon, shacking the ground
 Hacking and killing, we're not fooling around


w/Rhy 1 (2x)

 Warroirs in battle, all dressed in black
 A slash and a trust, a stab in the back


w/Rhy 2 (2x)

 The rages of fury, the cause of the fight
 We're Soilders of Metal, and we rule, the  
                                    

                                        End
G|-9--5--7--4-5---2-|-9--------|-9\--------|
D|-9--5--7--4-5---2-|-9--------|-9\--------|
A|-7--3--5--2-3---0-|-7--------|-7\--------|
E|------------------|-///------|-----------|
                      trem pick
Suggest correction
What's this?
You can suggest a correction to this tab. Community and Mods will review your correction and vote to approve or reject it.
comments
print report bad tab
1 comment total.
+1 reply
sundayman78 92 wrote on March 20 2010, 03:27 pm

really good tab

guest
You may want to rate the tab now too:
select rating
Please do not post tabs as comments. Select "correction" instead!