Oops, an error
Loading. Please wait.

Taking The Music Back Tab

version 1
version 1

Whole song

Interactive

748 views 3 this week
no commentswrite comment
1 2 3 4 5
please rate
add to favorites
launch autoscroll
font size
0
reset
how to read this tab
guitar tuner
Tab Pro tools
  • play this tab
  • loop segment
  • change instrument
  • show fretboard
  • metronome
Autoscroll
slow
fast
+/-
esc
set tempo
stop
anthrax:taking the music back
from "wcfya''


Tuning: Eb tuning with the 6 string dropped another whole step


Riff 1
eb|------------------------------|
Bb|------------------------------|
Gb|------------------------------|
Db|---7-7---7----7----7----7-----|
Ab|---5-5---5----5----5----5-----|
Db|-0-----0----0----0----0---5-3-|
    *     *    *    *    *
eb|---------------------------------|
Bb|---------------------------------|
Gb|---------------------------------|
Db|---7-7---7----7----7-------------|
Ab|---5-5---5----5----5--3-4-5------|
Db|-0-----0----0----0-----------3-5-|
    *     *    *    *
eb|------------------------------|
Bb|------------------------------|
Gb|------------------------------|
Db|---7-7---7----7----7----7-----|
Ab|---5-5---5----5----5----5-----|
Db|-0-----0----0----0----0---5-3-|
    *     *    *    *    *
eb|-------------------------------------|
Bb|-------------------------------------|
Gb|-------------------------------------|
Db|---7-7---7----7----------------------|
Ab|---5-5---5----5----3h5p3-------------|
Db|-0-----0----0----0-------3h5p3-2h3p2-|
    *     *    *    *


Riff 2
Guitar 1                      x3
eb|----------------------------|
Bb|----------------------------|
Gb|----------------------------|
Db|----------------------------|
Ab|---5----5----5----5---5-----|
Db|-0----0----0----0---0---5-3-|
    *    *    *    *   *
   "Your lies..."
eb|---------------------------------|
Bb|---------------------------------|
Gb|---------------------------------|
Db|---------------------------------|
Ab|--------10-------9-------8--8-7\-|
Db|-0-0-3/-10--0-3/-9--0-3/-8--8-7\-|
  "...hard..."
eb|----------------------------|
Bb|----------------------------|
Gb|----------------------------|
Db|----------------------------|
Ab|---5----5----5----5---5-----|
Db|-0----0----0----0---0---5-3-|
    *    *    *    *   *
  "Your lies..."
eb|------------------------------|
Bb|------------------------------|
Gb|------------------------------|
Db|------------------------------|
Ab|---5----5----5----5-----------|
Db|-0-6--0-6--0-6--0-6-0-5b6r5-3-|
    *    *    *    *   *
  "Your lies..."
eb|------------------------------|
Bb|------------------------------|
Gb|------------------------------|
Db|------------------------------|
Ab|---5----5----5----5-----------|
Db|-0-5--0-5--0-5--0-5-0-5b6r5-3-|
    *    *    *    *   *
  "Left on your own..."

Guitar 2
eb|----------------------------------|
Bb|----------------------------------|
Gb|----------------------------------|
Db|---10----10----10----10----10-12\-|
Ab|----------------------------------|
Db|-0-----0-----0-----0-----0--------|
    *     *    *      *     *
   "Your lies..."
eb|-----------------------------|
Bb|-----------------------------|
Gb|-----------------------------|
Db|---9----9----9----9----9-10\-|
Ab|-----------------------------|
Db|-0----0----0----0----0-------|
    *    *    *    *    *
  "Your lies..."
eb|-----------------------------|
Bb|-----------------------------|
Gb|-----------------------------|
Db|---8----8----8----8----8-10\-|
Ab|-----------------------------|
Db|-0----0----0----0----0-------|
    *    *    *    *    *
   "Your lies..."
eb|---------------------------------|
Bb|---------------------------------|
Gb|---------------------------------|
Db|---------------------------------|
Ab|--------10-------9-------8--8-7\-|
Db|-0-0-3/-10--0-3/-9--0-3/-8--8-7\-|
   "...hard..."
eb|----------------------------------|
Bb|----------------------------------|
Gb|----------------------------------|
Db|---10----10----10----10----10-12\-|
Ab|----------------------------------|
Db|-0-----0-----0-----0-----0--------|
    *     *    *      *     *
   "Your lies..."
eb|-----------------------------|
Bb|-----------------------------|
Gb|-----------------------------|
Db|---9----9----9----9----9-10\-|
Ab|-----------------------------|
Db|-0----0----0----0----0-------|
    *    *    *    *    *
   "Your lies..."
eb|-----------------------------|
Bb|-----------------------------|
Gb|-----------------------------|
Db|---8----8----8----8----8-10\-|
Ab|-----------------------------|
Db|-0----0----0----0----0-------|
    *    *    *    *    *
   "Left on your own..."


Riff 3
Guitar 1
eb|---------------------------------|
Bb|---------------------------------|
Gb|---------------------------------|
Db|---------------------------------|
Ab|--------10-------9-------8--8-7\-|
Db|-0-0-3/-10--0-3/-9--0-3/-8--8-7\-|
  "I am, taking the music back..."

Guitar 2
eb|---------------------|
Bb|---------------------|
Gb|-7-7-7-7-7-7-7-7-----|
Db|-x-x-x-x-x-x-x-x-----|
Ab|-5-5-5-5-5-5-5-5-...-|
Db|---------------------|


Play Riff 1
Play Riff 2  "Against your will..."


Riff 3a
Guitar 1                           x3
eb|---------------------------------|
Bb|---------------------------------|
Gb|---------------------------------|
Db|---------------------------------|
Ab|--------10-------9-------8--8-7\-|
Db|-0-0-3/-10--0-3/-9--0-3/-8--8-7\-|
  "I am, taking the music back..."
eb|----------------------------|
Bb|----------------------------|
Gb|----------------------------|
Db|----------------------------|
Ab|--------10-------9-------8--|
Db|-0-0-3/-10--0-3/-9--0-3/-8--|

Guitar 2
eb|-----------------------|
Bb|-----------------------|
Gb|-7-7-7-7-7-7-7-7-----7-|
Db|-x-x-x-x-x-x-x-x-----x-|
Ab|-5-5-5-5-5-5-5-5-...-5-|
Db|-----------------------|



Riff 4
Guitar 1                  x4
eb|------------------------|
Bb|------------------------|
Gb|------------------------|
Db|------------------------|
Ab|-0-0-0-x-x----0-0-0-x-x-|
Db|-0-0-0-x-x----0-0-0-x-x-|

Guitar 2                  x2
eb|------------------------|
Bb|------------------------|
Gb|------------------------|
Db|------------------------|
Ab|-0-0-0-0-0----0-0-0-0-0-|
Db|-0-0-0-0-0----0-0-0-0-0-|
          * *          * *
eb|------------------------|
Bb|------------------------|
Gb|------------------------|
Db|------------------------|
Ab|-0-0-0-1-1----0-0-0-1-1-|
Db|-0-0-0-1-1----0-0-0-1-1-|
          * *          * *

Riff 5
Guitar 1                    x4
eb|--------------------------|
Bb|--------------------------|
Gb|--------------------------|
Db|--------------------------|
Ab|-0-0-0-8-8-8--0-0-0-8-8-8-|
Db|-0-0-0-8-8-8--0-0-0-8-8-8-|

eb|-----------------------------|
Bb|-----------------------------|
Gb|-----------------------------|
Db|-7\-----7\-----7\-----7\-----|
Ab|-5\-----5\-----5\-----5\-----|
Db|----0-0----0-0----0-0----0-0-|
       * *    * *    * *    * *
eb|--------------------------------------|
Bb|--------------------------------------|
Gb|--------------------------------------|
Db|-7\-----7\----------------------------|
Ab|-5\-----5\----------------------------|
Db|----0-0----0-0----0-0-0-0-0-0-0-0-...-|
       * *    * *    * * * * * * * * 

Guitar 2 (Some effect)
eb|-------------------------|
Bb|--------8-----8-----8----|
Gb|-------10b12-10b12-10b12-|
Db|-------------------------|
Ab|-0-0-0-------------------|
Db|-0-0-0-------------------|

eb|----------------------------------------|
Bb|----------------------------------------|
Gb|-12\----12\----12\----12\----12\----12\-|
Db|----------------------------------------|
Ab|----------------------------------------|
Db|----------------------------------------|


Play Riff 3   "I am, taking the music back..."

Ending:
Guitar 1                           x3
eb|---------------------------------|
Bb|---------------------------------|
Gb|---------------------------------|
Db|---------------------------------|
Ab|--------10-------9-------8--8-7\-|
Db|-0-0-3/-10--0-3/-9--0-3/-8--8-7\-|
  "I am, taking the music back..."
eb|----------------------------|
Bb|----------------------------|
Gb|----------------------------|
Db|----------------------------|
Ab|--------10-------9-------8--|
Db|-0-0-3/-10--0-3/-9--0-3/-8--|

Guitar 2
eb|-----------------------------|
Bb|-----------------------------|
Gb|-14-14-14-14-14-14-14-14-----|
Db|--x--x--x--x--x--x--x--x-----|
Ab|-12-12-12-12-12-12-12-12-...-|
Db|-----------------------------|

eb|---------------------|
Bb|---------------------|
Gb|-7-7-7-7-7-7-7-7-----|
Db|-x-x-x-x-x-x-x-x-----|
Ab|-5-5-5-5-5-5-5-5-...-|
Db|---------------------|

eb|-----------------------------|
Bb|-----------------------------|
Gb|-7-7-7-7-7-7-7-7-12-12-12-14-|
Db|-x-x-x-x-x-x-x-x--x--x--x--x-|
Ab|-5-5-5-5-5-5-5-5-10-10-10-12-|
Db|-----------------------------|
comments
We did not receive enough feedback on this tab! Please rate:
print report bad tab
1 2 3 4 5
I want to post or [tab]
guest
You may want to rate the tab now too:
select rating
Please do not post tabs as comments. Select "correction" instead!