Oops, an error
Loading. Please wait.

The Enemy Tab

version 1
version 1

Whole song

Interactive

927 views 6 this week
no commentswrite comment
1 2 3 4 5
accurate
x 2
add to favorites
launch autoscroll
font size
0
reset
how to read this tab
guitar tuner
Tab Pro tools
  • play this tab
  • loop segment
  • change instrument
  • show fretboard
  • metronome
Autoscroll
slow
fast
+/-
esc
set tempo
stop
Contributor
Difficulty
intermediate
 Enemy tab By Anthrax From The Album Spread The Disease, 1985


GTR1-EADGBe-Rythm
GTR2-EADGBe-Lead



Riff 1
GTR2
0:12 to 0:39
e -------------------------------------------------------------------------|
B -------------------------------------------------------------------------|
G -9------------12----14----------------9------------14----7---------------|
D -9------------12----14----------------9------------14----7---------------|
A -7------------10----12----------------7------------12----5---------------|
E -------------------------------------------------------------------------|

Riff 2
GTR1
0:21 to 0:56

e --------------------------------------------------------------------------|
B --------------------------------------------------------------------------|
G --------------------------------------------------------------------------|
D -2--2-2-2--2-2-2--2-2-2--2-2-2--2-2-2--2-2-2--2-2-2--2-2-2--2-2-2--2-2-2--|
A -2--2-2-2--2-2-2--2-2-2--2-2-2--2-2-2--2-2-2--2-2-2--2-2-2--2-2-2--2-2-2--|
E -0--0-0-0--0-0-0--0-0-0--0-0-0--0-0-0--0-0-0--0-0-0--0-0-0--0-0-0--0-0-0--|

e ---------------------------------------|
B ---------------------------------------|
G ---------------------------------------|
D 2-2-2--2-2-2--2-2-2--2-2-2--2-2-2--2-2-|
A 2-2-2--2-2-2--2-2-2--2-2-2--2-2-2--2-2-|
E 0-0-0--0-0-0--0-0-0--0-0-0--0-0-0--0-0-|


Riff 3
GTR2
0:39 to 0:56

e ---------------------------------------------------------------------------|
B ---------------------------------------------------------------------------|
G -------17-------17-------17----19----17------------------------------------|
D -------17-------17--------------------------------17-------17-------16-----|
A -15-15----15-15------15-----15----15----15--------17-------17--------------|
E--------------------------------------------15-15----15-15------15-----15---|


e--------------|
B--------------|
G--------------|
D 17----16-----|
A -------------|
E ----15----15-|



e ---------------------------------------------------------------------------|
B ---------------------------------------------------------------------------|
G -------14-------14-------14----16----14------------------------------------|
D -------14-------14--------------------------------14-------14---12-14-14---|
A -12-12----12-12------12-----12----12----12--------14-------14---12-14-14---|
E --------------------------------------------12-12----12-12------10-12-12---|




e ---------|
B ---------|
G ---------|
D 12-14----|
A 12-14----|
E 10-12----|



e --------------------------------------------------------------------------|
B --------------------------------------------------------------------------|
G -------17-------17-------17----19----17-----------------------------------|
D -------17-------17--------------------------------17-------17-------16----|
A -15-15----15-15------15-----15----15----15--------17-------17-------------|
E --------------------------------------------15-15----15-15------15-----15-|


e ------------|
B ------------|
G ------------|
D 17----16----|
A ------------|
E ---15----15-|




e ---------------------------------------------------------------|
B ---------------------------------------------------------------|
G -------14-------14-------14----16----14------------------------|
D -------14-------14---------------------------------------------|
A -12-12----12-12------12-----12----12----12---------------------|
E --------------------------------------------12-----------------| Let Ring...



verse 1 also the chorus
Both GTR
0:57 To 1:10
3rd time you just stop at G -12-  and let ring
                          D -12-
                          A -10-
e ------------------------------------------------------|
B ------------------------------------------------------|
G -9-------------------------------12-------------------|
D -9------------4----5-------------12-------------------|
A -7------------2----3-------------10------------12/14--|
E ------0-0-0-0------------0-0-0-0-------0-0-0---10/12--|


Verse 2
Both GTR
1:10 to 1:35

e --------------------------------------------------------------------------|
B --------------------------------------------------------------------------|
G ------------------------5--------------------------7----------------------|
D -2--2-2-2--2-2-2--2-2-2-5---2--2-2-2--2-2-2--2-2-2-7---2--2-2-2--2-2-2--2-|
A -2--2-2-2--2-2-2--2-2-2-3---2--2-2-2--2-2-2--2-2-2-5---2--2-2-2--2-2-2--2-|
E -0--0-0-0--0-0-0--0-0-0-----0--0-0-0--0-0-0--0-0-0-----0--0-0-0--0-0-0--0-|




e ----------------------------------|
B ----------------------------------|
G ----5-----------------------------|
D 2-2-5---2--2-2-2--2-2-------------|
A 2-2-3---2--2-2-2--2-2-3-5-2-3-----|
E 0-0-----0--0-0-0--0-0---------3---|




e --------------------------------------------------------------------------|
B --------------------------------------------------------------------------|
G ------------------------5--------------------------7----------------------|
D -2--2-2-2--2-2-2--2-2-2-5---2--2-2-2--2-2-2--2-2-2-7---2--2-2-2--2-2-2--2-|
A -2--2-2-2--2-2-2--2-2-2-3---2--2-2-2--2-2-2--2-2-2-5---2--2-2-2--2-2-2--2-|
E -0--0-0-0--0-0-0--0-0-0-----0--0-0-0--0-0-0--0-0-0-----0--0-0-0--0-0-0--0-|




e -------------------------------------|
B -------------------------------------|
G ----5--------------------------------|
D 2-2-5---2--2-2-2--2-2----------------|
A 2-2-3---2--2-2-2--2-2-------2--------|
E 0-0-----0--0-0-0--0-0-5-0-3---5-0-3--|



Pre-Chorus
both GTR                                                                2x
1:35 to 1:53
e ---------------------------------------------------------------------|
B ---------------------------------------------------------------------|
G ---------------------------------------------------------------------|
D -7----------------8----------------3----------------5----------------|
A -7----------------8----------------3----------------5----------------|
E -5----------------6----------------1----------------3----------------|

Play verse 2 1:53 To 2:10

Play Pre-Chorus 2:10 To 2:28

Play Verse 1 (wich is the chorus) 2:28 To 2:47


Riff 4
Both GTR
2:47 To 2:58

e ---------------------------------------------------------------------------------------------|
B ---------------------------------------------------------------------------------------------|
G -9----------------------------------------------9--------------------------------------------|
D -9----------------10-9-7-6-9-7-6---6------------9----------------10-9-7-6-9-7-6---6----------|
A -7-------------------------------8---8-7-5-7----7-------------------------------8---8-7-5-7--|
E ---------------------------------------------------------------------------------------------|

e ------------------|
B ------------------|
G -9----------------|
D -9----------------|
A -7----------------|
E ------------------|

Play Verse 2 2:58 To 3:15

Play Pre-Chorus 3:15 To 3:33

Play Verse 1 (chorus) 3:33 To 3:52



Bridge
GTR1
3:56 To 4:05

e -------------------------------------------------------------|
B -------------------------------------------------------------|
G -------------------------------------------------------------|
D -------------------------------------------------------------|
A -14--------14---15--------14---16--------14---17--------17---|
E -0 --0-0-0-0 ---0 --0-0-0-0 ---0 --0-0-0-0 ---0 --0-0-0-0 ---


Both GTR
4:05 To 4:24
e -----------------------------------------|
B -----------------------------------------|
G -9--------10--------11--------12------7--|
D -9--------10--------11--------12------7--|
A -7--------8 --------9 --------10------5--|
E -----------------------------------------|



e --------------------------------------|
B --------------------------------------|
G --------------------------------------|
D -7--------8--------9--------10--------|
A -7--------8--------9--------10--------|
E -5--------6--------7--------8 --------|



Sory D'ont have the solo yet

Play Chorus 4:44 To 5:24

Thats it !!!!!!!!!!!!!
comments
We did not receive enough feedback on this tab! Please rate:
print report bad tab
1 2 3 4 5
I want to post or [tab]
guest
You may want to rate the tab now too:
select rating
Please do not post tabs as comments. Select "correction" instead!