Oops, an error
Loading. Please wait.

This Is Not An Exit Tab

version 1
version 1

Whole song

Interactive

812 views 1 this week
no commentswrite comment
1 2 3 4 5
2 more votes to show rating
add to favorites
launch autoscroll
font size
0
reset
how to read this tab
guitar tuner
Autoscroll
slow
fast
+/-
esc
set tempo
stop
Help us to improve Ultimate-Guitar.com Take our survey!
×
Author
Tuning
C# G# C# F# A# D#
#----------------------------------PLEASE NOTE---------------------------------#
#This file is the author's own work and represents their interpretation of the #
#song. You may only use this file for private study, scholarship, or research. #
#------------------------------------------------------------------------------#

THIS IS NOT AN EXIT
As recorded by Anthrax
(From the 1993 Album SOUND OF WHITE NOISE)

Transcribed by Mike Sheehan
	

Words and Music by Charlie Benante, John Bush & Scott Ian

D5
0 0 x x x x
	
Eb5
1 1 x x x x
	
E5
2 2 x x x x
	
F5
3 3 x x x x

F#5
4 4 x x x x
	
G5
5 5 x x x x
	
G#5
6 6 x x x x
	
A5
7 7 x x x x

Bb5
8 8 x x x x
	
B5
9 9 x x x x
	
C5
10 10 x x x x

Gtr I (Db Ab Db Gb Bb Eb) - 'Scott Ian'
Gtr II (Db Ab Db Gb Bb Eb) - 'Dan Spitz'

   Intro
    Q=125
    N.C.
   4/4
    Gtrs I, II
    E E E E E E E E   +W           E E E E E E E E   +W
||------------------|------------|-----------------|---------||
||o-----------------|------------|-----------------|--------o||
||------------------|------------|-----------------|---------||
||------------------|------------|-----------------|---------||
||o-5-----5-----5---|------------|-2-----2-----2---|--------o||
||----9-9---8-8---7-|-(7)--------|---5-5---4-4---2-|-(2)-----||


 Verse 1
  E E E E E E E E   +W           E E E E E E E E   +W
|-----------------|------------|-----------------|--------|
|-----------------|------------|-----------------|--------|
|-----------------|------------|-----------------|--------|
|-----------------|------------|-----------------|--------|
|-5-----5-----5---|------------|-2-----2-----2---|--------|
|---9-9---8-8---7-|-(7)--------|---5-5---4-4---2-|-(2)----|


                                               E5
  E E E E E E E E   +W           E E E E E E E E   +W
|-----------------|------------|-----------------|--------|
|-----------------|------------|-----------------|--------|
|-----------------|------------|-----------------|--------|
|-----------------|------------|-----------------|--------|
|-5-----5-----5---|------------|-2-----2-------2-|-(2)----|
|---9-9---8-8---7-|-(7)--------|---5-5---4-4-0-2-|-(2)----|


  N.C.          E5               N.C.          E5
  E E E E E E E E   +W           E E E E E E E E   +W
|-----------------|------------|-----------------|--------|
|-----------------|------------|-----------------|--------|
|-----------------|------------|-----------------|--------|
|-----------------|------------|-----------------|--------|
|-2-----2-------2-|-(2)--------|-2-----2-------2-|-(2)----|
|---5-5---4-4-0-2-|-(2)--------|---5-5---4-4-0-2-|-(2)----|


  N.C.          E5               N.C.
  E E E E E E E E   +W           E E E E E E Q
|-----------------|------------|----------------||
|-----------------|------------|----------------||
|-----------------|------------|----------------||
|-----------------|------------|----------------||
|-2-----2-------2-|-(2)--------|-2-----2--------||
|---5-5---4-4-0-2-|-(2)--------|---5-5---4-4-0--||


  D5EbE5EbE5  D5Eb5 E5D5EbE5D5F5     D5EbE5EbE5  D5Eb5 E5D5EbE5D5F5
  E E E E E E E E   E E E E E Q.     E E E E E E E E   E E E E E Q.
|-----------------|----------------|-----------------|----------------|
|-----------------|----------------|-----------------|----------------|
|-----------------|----------------|-----------------|----------------|
|-----------------|----------------|-----------------|----------------|
|-0-1-2-1-2-2-0-1-|-2-0-1-2-0-3----|-0-1-2-1-2-2-0-1-|-2-0-1-2-0-3----|
|-0-1-2-1-2-2-0-1-|-2-0-1-2-0-3----|-0-1-2-1-2-2-0-1-|-2-0-1-2-0-3----|


  D5EbE5EbE5  D5Eb5 E5D5EbE5D5F5     D5EbE5EbE5    D5
  E E E E E E E E   E E E E E Q.     E E E E E E E E   E S S Q  H
|-----------------|----------------|-----------------|-------x-------||
|-----------------|----------------|-----------------|-----x---------||
|-----------------|----------------|-----------------|---x-----------||
|-----------------|----------------|-----------------|---------------||
|-0-1-2-1-2-2-0-1-|-2-0-1-2-0-3----|-0-1-2-1-2-2---0-|---------------||
|-0-1-2-1-2-2-0-1-|-2-0-1-2-0-3----|-0-1-2-1-2-2---0-|---------------||


   Verse 2
      EbE5EbE5  D5Eb5 E5D5EbE5D5F5     D5EbE5EbE5  D5Eb5 E5D5EbE5  D5
    PM------------------------|        PM------------------------|
    E E E E E E E E   E E E E E Q.     E E E E E E E E   E E E E E Q.     4x
||------------------|----------------|-----------------|------------------||
||o-----------------|----------------|-----------------|-----------------o||
||------------------|----------------|-----------------|------------------||
||------------------|----------------|-----------------|------------------||
||o-0-1-2-1-2-2-0-1-|-2-0-1-2-0-3----|-0-1-2-1-2-2-0-1-|-2-0-1-2-2-0-----o||
||--0-1-2-1-2-2-0-1-|-2-0-1-2-0-3----|-0-1-2-1-2-2-0-1-|-2-0-1-2-2-0------||


 Pre Chorus
  Q=135
  E5EbD5EbE5    F5    E5F5D5E5EbD5Eb5 E5EbD5EbE5    F5    E5EbD5E5EbD5E5
  E E E E E E E E   E E E E E E E E   E E E E E E E E   E E E E E E E E
|-----------------|-----------------|-----------------|-----------------|
|-----------------|-----------------|-----------------|-----------------|
|-----------------|-----------------|-----------------|-----------------|
|-----------------|-----------------|-----------------|-----------------|
|-2-1-0-1-2---2-3-|---2-3-0-2-1-0-1-|-2-1-0-1-2---2-3-|---2-1-0-2-1-0-2-|
|-2-1-0-1-2---2-3-|---2-3-0-2-1-0-1-|-2-1-0-1-2---2-3-|---2-1-0-2-1-0-2-|


    EbD5EbE5    F5    E5F5D5E5EbD5Eb5 E5EbD5EbE5    F5    E5EbD5E5EbD5E5
  E E E E E E E E   E E E E E E E E   E E E E E E E E   E E E E E E E E
|-----------------|-----------------|-----------------|-----------------|
|-----------------|-----------------|-----------------|-----------------|
|-----------------|-----------------|-----------------|-----------------|
|-----------------|-----------------|-----------------|-----------------|
|-2-1-0-1-2---2-3-|---2-3-0-2-1-0-1-|-2-1-0-1-2---2-3-|---2-1-0-2-1-0-2-|
|-2-1-0-1-2---2-3-|---2-3-0-2-1-0-1-|-2-1-0-1-2---2-3-|---2-1-0-2-1-0-2-|


  N.C.
  PM----------------------------| ~    PM------------------------------|
  E E E E E E E  E    E E E E E E Q    E E E E E E E E   E E E E E E E E
|------------------|-----------------|-----------------|-----------------|
|------------------|-----------------|-----------------|-----------------|
|------------------|-----------------|-----------------|-----------------|
|------------------|-----------------|-----------------|-----------------|
|------------------|-----------------|-----------------|-7-6-5-5---------|
|-9-9-9-7-9-9-7-10-|-10-7-9-9-7-9-7--|-7-7-7-5-7-7-5-5-|---------7-5-5-0-|


  D5EbE5EbE5  D5Eb5 E5D5EbE5D5F5     D5EbE5EbE5  D5Eb5 E5D5EbE5  D5
  PM------------------------|        PM------------------------|
  E E E E E E E E   E E E E E Q.     E E E E E E E E   E E E E E Q.
|-----------------|----------------|-----------------|----------------|
|-----------------|----------------|-----------------|----------------|
|-----------------|----------------|-----------------|----------------|
|-----------------|----------------|-----------------|----------------|
|-0-1-2-1-2-2-0-1-|-2-0-1-2-0-3----|-0-1-2-1-2-2-0-1-|-2-0-1-2-2-0----|
|-0-1-2-1-2-2-0-1-|-2-0-1-2-0-3----|-0-1-2-1-2-2-0-1-|-2-0-1-2-2-0----|


  N.C.
  PM----------------------------| ~    PM----------------------|
  E E E E E E E  E    E E E E E E Q    E E E E E E E E   E E E E E E E E
|------------------|-----------------|-----------------|-----------------||
|------------------|-----------------|-----------------|-----------------||
|------------------|-----------------|-----------------|-----------------||
|------------------|-----------------|-----------------|-----------------||
|------------------|-----------------|-----------------|-7-6-5-5---------||
|-9-9-9-7-9-9-7-10-|-10-7-9-9-7-9-7--|-7-7-7-5-7-7-5-5-|---------7-6-5-4-||


 Chorus
  Q=140
  E E E E E E E E   +E  E Q  E Q  E   E E E E E E E E   +E  E Q  E Q  E
|-----------------|-----------------|-----------------|-----------------|
|-----------------|-----------------|-----------------|-----------------|
|-----------------|-----------------|-----------------|-----------------|
|-----------------|-----------------|-----------------|-----------------|
|-2-----2---------|-----------------|-2-----2---------|-----------------|
|---2-2---0-0-1-2-|-(2)-1-2--1-2--1-|---2-2---0-0-1-2-|-(2)-1-2--1-2--1-|


  E E E E E E E E   +E  E Q  E Q  E   E E E E E E E E   W
|-----------------|-----------------|-----------------|------||
|-----------------|-----------------|-----------------|------||
|-----------------|-----------------|-----------------|------||
|-----------------|-----------------|-----------------|------||
|-2-----2---------|-----------------|-2-----2---------|------||
|---2-2---0-0-1-2-|-(2)-1-2--1-2--1-|---2-2---0-0-1-2-|------||


   Verse 3
    Q=135
    D5EbE5EbE5  D5Eb5 E5D5EbE5D5F5     D5EbE5EbE5  D5Eb5 E5D5EbE5  D5
    PM------------------------|        PM------------------------|
    E E E E E E E E   E E E E E Q.     E E E E E E E E   E E E E E Q.     4x
||------------------|----------------|-----------------|------------------||
||o-----------------|----------------|-----------------|-----------------o||
||------------------|----------------|-----------------|------------------||
||------------------|----------------|-----------------|------------------||
||o-0-1-2-1-2-2-0-1-|-2-0-1-2-0-3----|-0-1-2-1-2-2-0-1-|-2-0-1-2-2-0-----o||
||--0-1-2-1-2-2-0-1-|-2-0-1-2-0-3----|-0-1-2-1-2-2-0-1-|-2-0-1-2-2-0------||


 Pre Chorus
  E5EbD5EbE5    F5      E5D5E5EbD5Eb5 E5EbD5EbE5    F5      E5D5E5EbD5E5
  E E E E E E E E   E E E E E E E E   E E E E E E E E   E E E E E E E E
|-----------------|-----------------|-----------------|-----------------|
|-----------------|-----------------|-----------------|-----------------|
|-----------------|-----------------|-----------------|-----------------|
|-----------------|-----------------|-----------------|-----------------|
|-2-1-0-1-2---2-3-|---3-2-0-2-1-0-1-|-2-1-0-1-2---2-3-|---3-2-0-2-1-0-2-|
|-2-1-0-1-2---2-3-|---3-2-0-2-1-0-1-|-2-1-0-1-2---2-3-|---3-2-0-2-1-0-2-|


    EbD5EbE5    F5      E5D5E5EbD5E5    EbD5EbE5    F5      E5D5E5EbD5E5
  E E E E E E E E   E E E E E E E E   E E E E E E E E   E E E E E E E E
|-----------------|-----------------|-----------------|-----------------|
|-----------------|-----------------|-----------------|-----------------|
|-----------------|-----------------|-----------------|-----------------|
|-----------------|-----------------|-----------------|-----------------|
|-2-1-0-1-2---2-3-|---3-2-0-2-1-0-2-|-2-1-0-1-2---2-3-|---3-2-0-2-1-0-2-|
|-2-1-0-1-2---2-3-|---3-2-0-2-1-0-2-|-2-1-0-1-2---2-3-|---3-2-0-2-1-0-2-|


  N.C.
  PM----------------------------| ~    PM------------------------------|
  E E E E E E E  E    E E E E E E Q    E E E E E E E E   E E E E E E E E
|------------------|-----------------|-----------------|-----------------|
|------------------|-----------------|-----------------|-----------------|
|------------------|-----------------|-----------------|-----------------|
|------------------|-----------------|-----------------|-----------------|
|------------------|-----------------|-----------------|-7-6-5-5---------|
|-9-9-9-7-9-9-7-10-|-10-7-9-9-7-9-7--|-7-7-7-5-7-7-5-5-|---------7-5-5-0-|


  D5EbE5EbE5  D5Eb5 E5D5EbE5D5F5     D5EbE5EbE5  D5Eb5 E5D5EbE5  D5
  PM------------------------|        PM------------------------|
  E E E E E E E E   E E E E E Q.     E E E E E E E E   E E E E E Q.
|-----------------|----------------|-----------------|----------------|
|-----------------|----------------|-----------------|----------------|
|-----------------|----------------|-----------------|----------------|
|-----------------|----------------|-----------------|----------------|
|-0-1-2-1-2-2-0-1-|-2-0-1-2-0-3----|-0-1-2-1-2-2-0-1-|-2-0-1-2-2-0----|
|-0-1-2-1-2-2-0-1-|-2-0-1-2-0-3----|-0-1-2-1-2-2-0-1-|-2-0-1-2-2-0----|


  B5    A5B5  A5C5      A5B5  A5B5A5         G5A5  G5Bb5   G5A5G5A5G#G5F#5
  E E E E E E E  E    E E E E E E Q    E E E E E E E E   E E E E E E E E
|------------------|-----------------|-----------------|-----------------||
|------------------|-----------------|-----------------|-----------------||
|------------------|-----------------|-----------------|-----------------||
|------------------|-----------------|-----------------|-----------------||
|-9-9-9-7-9-9-7-10-|-10-7-9-9-7-9-7--|-7-7-7-5-7-7-5-8-|-8-5-7-5-7-6-5-4-||
|-9-9-9-7-9-9-7-10-|-10-7-9-9-7-9-7--|-7-7-7-5-7-7-5-8-|-8-5-7-5-7-6-5-4-||


 Chorus
  Q=140
  N.C.
  E E E E E E E E   +E  E Q  E Q  E   E E E E E E E E   +E  E Q  E Q  E
|-----------------|-----------------|-----------------|-----------------|
|-----------------|-----------------|-----------------|-----------------|
|-----------------|-----------------|-----------------|-----------------|
|-----------------|-----------------|-----------------|-----------------|
|-2-----2---------|-----------------|-2-----2---------|-----------------|
|---2-2---0-0-1-2-|-(2)-1-2--1-2--1-|---2-2---0-0-1-2-|-(2)-1-2--1-2--1-|


  E E E E E E E E   +E  E Q  E Q  E   E E E E E E E E   +E  E Q  E Q  E
|-----------------|-----------------|-----------------|-----------------||
|-----------------|-----------------|-----------------|-----------------||
|-----------------|-----------------|-----------------|-----------------||
|-----------------|-----------------|-----------------|-----------------||
|-2-----2---------|-----------------|-2-----2---------|-----------------||
|---2-2---0-0-1-2-|-(2)-1-2--1-2--1-|---2-2---0-0-1-2-|-(2)-1-2--1-2--1-||


   Bridge
    Q=145
                  A5               N.C.          E5
    E E E E E E E E   +W           E E E E E E E E   +W      3x
||------------------|------------|-----------------|---------||
||o-----------------|------------|-----------------|--------o||
||------------------|------------|-----------------|---------||
||------------------|------------|-----------------|---------||
||o-5-----5-----5-7-|-(7)--------|-2-----2-------2-|-(2)----o||
||----9-9---8-8---7-|-(7)--------|---5-5---4-4-0-2-|-(2)-----||


  N.C.          A5               N.C.        D5E5
  E E E E E E E E   +W           E E E E E E E E
|-----------------|------------|-----------------|
|-----------------|------------|-----------------|
|-----------------|------------|-----------------|
|-----------------|------------|-----------------|
|-5-----5-----5-7-|-(7)--------|-2-----2-----0-2-|
|---9-9---8-8---7-|-(7)--------|---5-5---4-4-0-2-|


  +W           +W           +W           +W
|------------|------------|------------|--------||
|------------|------------|------------|--------||
|------------|------------|------------|--------||
|------------|------------|------------|--------||
|-(2)--------|-(2)--------|-(2)--------|-(2)----||
|-(2)--------|-(2)--------|-(2)--------|-(2)----||


    E5N.C.                          EbN.C.
      PM--|  ~~~                      PM--|  ~~~
    E E E E  Q.   +E     W          E E E E  Q.   +E     W
||---------------------|----------|--------------------|-------||
||o--------------------|----------|--------------------|------o||
||---------------------|----------|--------------------|-------||
||--2------------------|----------|-1------------------|-------||
||o-2-------/7----(7)\-|----------|-1-------/6----(6)\-|------o||
||--2-2-2-2------------|----------|-1-1-1-1------------|-------||


  E5EbD5EbF5       E5EbD5EbF5       E5EbD5EbF5       E5EbD5EbF5
  PM------|        PM------|        PM------|        PM------|
  E E E E E E Q    E E E E E E Q    E E E E E E Q    E E E E E E Q
|----------------|----------------|----------------|----------------|
|----------------|----------------|----------------|----------------|
|----------------|----------------|----------------|----------------|
|----------------|----------------|----------------|----------------|
|-2-1-0-1-3-3----|-2-1-0-1-3-3----|-2-1-0-1-3-3----|-2-1-0-1-3-3----|
|-2-1-0-1-3-3----|-2-1-0-1-3-3----|-2-1-0-1-3-3----|-2-1-0-1-3-3----|


  E5EbD5EbF5  N.C.  E5EbD5EbF5  N.C.  E5EbD5EbF5  N.C.  E5EbD5EbF5
  PM------|   PM------------|   PM------------|   PM------------|
  E E E E E E E E   E E E E E E E E   E E E E E E E E   E E E E E E Q
|-----------------|-----------------|-----------------|----------------||
|-----------------|-----------------|-----------------|----------------||
|-----------------|-----------------|-----------------|----------------||
|-----------------|-----------------|-----------------|----------------||
|-2-1-0-1-3-3-----|-2-1-0-1-3-3-----|-2-1-0-1-3-3-----|-2-1-0-1-3-3----||
|-2-1-0-1-3-3-0-0-|-2-1-0-1-3-3-0-0-|-2-1-0-1-3-3-0-0-|-2-1-0-1-3-3----||


 Guitar Solo
  Q=150
  E5    EbD5    EbE5            F5                E5    D5    E5    Eb5   D5    Eb5
  Gtr I
   E    E  E    E  E    E  E    E     E      E     E     E     E     E     E     E
|---------------------------------|----------------------------------------------------|
|---------------------------------|----------------------------------------------------|
|---------------------------------|----------------------------------------------------|
|---------------------------------|----------------------------------------------------|
|--2----1--0----1--2-------2----3-|----------3-----2-----0-----2-----1-----0-----1-----|
|--2----1--0----1--2-------2----3-|----------3-----2-----0-----2-----1-----0-----1-----|
|
| Gtr II
|  Q       Q       Q       Q         +E      E     E     E     E     E     E     E
|-12------12------12------12------|-(12)----12----12----12----12----12----12-----------|
|-15b17---15b17---15b17---15b17---|-(15)b17-15b17-15b17-15b17-15b17-15b17-15b17-15b17==|
|---------------------------------|----------------------------------------------------|
|---------------------------------|----------------------------------------------------|
|---------------------------------|----------------------------------------------------|
|---------------------------------|----------------------------------------------------|


  E5   Eb5     D5 Eb5E5               F5          E5D5E5    EbD5Eb5
    E    E      E  E  E      E   E     E     E  E E E   E   E E E
|----------------------------------------|--------------------------|
|----------------------------------------|--------------------------|
|----------------------------------------|--------------------------|
|----------------------------------------|--------------------------|
|---2----1------0--1--2----------2-----3-|------3-2-0---2---1-0-1---|
|---2----1------0--1--2----------2-----3-|------3-2-0---2---1-0-1---|
|
|                                      ~~~~~~~~~
|  +E   +S   S  E  E  E     +E   S  S  E    +H         +H
|----------------------------------------|--------------------------|
|-(15)r(15)p12---------------------------|--------------------------|
|--------------14-14-12b14r(12)----12----|--------------------------|
|-------------------------------14----14-|-(14)-------(14)\---------|
|----------------------------------------|--------------------------|
|----------------------------------------|--------------------------|


  E5 Eb5D5    EbE5       F5             F5    D5    E5    EbD5Eb5
   E  E  E    E E E   E   E        E  E  E     E     E    E E  E
|------------------------------|-------------------------------------|
|------------------------------|-------------------------------------|
|------------------------------|-------------------------------------|
|------------------------------|-------------------------------------|
|--2--1--0----1-2-----2---3----|------3--2-----0-----2----1-0--1-----|
|--2--1--0----1-2-----2---3----|------3--2-----0-----2----1-0--1-----|
|
|  E  E  H           +E   E       +Q     E     E     Q.        E
|----12------------------12----|-(12)---12----12---------------------|
|-15----15b17-------(15)-15b17-|-(15)---15b17-15b17-15b17-----15b17==|
|------------------------------|-------------------------------------|
|------------------------------|-------------------------------------|
|------------------------------|-------------------------------------|
|------------------------------|-------------------------------------|


  E5   Eb5     D5 Eb5E5      F5             E5D5   E5   Eb5  D5Eb5
    E    E      E  E  E E  E  E        E  E E   E    E    E  E E
|----------------------------------|-----------------------------|
|----------------------------------|-----------------------------|
|----------------------------------|-----------------------------|
|----------------------------------|-----------------------------|
|---2----1------0--1--2----2--3----|------3-2---0----2----1--0-1-|
|---2----1------0--1--2----2--3----|------3-2---0----2----1--0-1-|
|
|                                                    ~~~~~~~~
|  +E   +S   S  E  E  Q    E  E       +Q.      +E   +E   +Q.
|----------------------------15b17-|-(15)-----(15)-(15)-(15)-----|
|-(15)r(15)p12---------------------|-----------------------------|
|-----------------14-12------------|-----------------------------|
|--------------14---------14-------|-----------------------------|
|----------------------------------|-----------------------------|
|----------------------------------|-----------------------------|


  N.C.
     PM--------------|                            ~~~~
   E E  E E  E  E     E  E       +E  E  E     E   H
|-----------------------------|-------------------------|
|-----------------------------|-------------------------|
|-----------------------------|-------------------------|
|-----------------------------|-------------------------|
|-----------------------------|-------------------------|
|--0-0--0-0--0--0-----0--2----|--(2)-3--2-----0---2-----|
|
|                                             ~~~~~~~
|  Q    Q    E  S  S  E  E       +Q     S  S  E  +H
|-----------------------------|-------------------------|
|-12---14---12----------------|--------14-12------------|
|-12---14---12----------14b16-|-(14)--------------------|
|--------------14p12----------|--------------14-(14)----|
|--------------------14-------|-------------------------|
|-----------------------------|-------------------------|


     PM--------------|                                     ~~~~~
   E E  E E  E  E     E  E        +E        E   E      E   H
|------------------------------|----------------------------------|
|------------------------------|----------------------------------|
|------------------------------|----------------------------------|
|------------------------------|----------------------------------|
|------------------------------|----------------------------------|
|--0-0--0-0--0--0-----0--2-----|--(2)-------3---2------0---2------|
|
|                                                          ~~~~~
|  Q    Q    E  S  S  E  E        +S   +S   E  +s   E.    +H
|------------------------------|----------------------------------|
|-12---14---12----------15b17==|=(15)-(15)-15-(15)-15----(15)r----|
|-12---14---12-------12--------|----------------------------------|
|--------------14p12-----------|----------------------------------|
|------------------------------|----------------------------------|
|------------------------------|----------------------------------|


     PM--------------|
   E E  E E  E  E     E  E
|-----------------------------|
|-----------------------------|
|-----------------------------|
|-----------------------------|
|-----------------------------|
|--0-0--0-0--0--0-----0--2----|
|
|                        ~~~~~~
|  Q    Q    E  S  S  E  E
|-----------------------------|
|-12---14---12----------------|
|-12---14---12----------14b16-|
|--------------14p12----------|
|--------------------14-------|
|-----------------------------|


                                                          E5
                    ~~                 PM--------------|
   +E   E  E     E  H                E E  E E  E  E     E  E
|---------------------------------|--------------------------|
|---------------------------------|--------------------------|
|---------------------------------|--------------------------|
|---------------------------------|--------------------------|
|---------------------------------|------------------------2-|
|--(2)--3--2-----0--2-------------|--0-0--0-0--0--0-----0--2-|
|
|~~~~~~                   ~~~~~~~                          ~~
|  +E   E  E     E  E  S  S  +Q      Q    Q    E  S  S  E  E
|---------------------------------|--------------------------|
|------12-------12----------------|-12---14---12-------------|
|-(14)----14b16----14-12----------|-12---14---12-------------|
|------------------------14-(14)--|--------------14p12-------|
|---------------------------------|--------------------14----|
|---------------------------------|-----------------------14-|


       PM----------------------------------
    E  E E E E E E E     E  E E E E E E E
|--------------------|--------------------|
|--------------------|--------------------|
|--------------------|--------------------|
|--------------------|--------------------|
|---2--2-2-2-2-2-2-2-|---2--2-2-2-2-2-2-2-|
|---2--2-2-2-2-2-2-2-|---2--2-2-2-2-2-2-2-|
|
|   ~~~~~~~~~~~~~~~~~~~~~~~~~~~~~~~~~~~~~~~
|  +W                   +W
|--------------------|--------------------|
|--------------------|--------------------|
|--------------------|--------------------|
|--------------------|--------------------|
|--------------------|--------------------|
|-(14)---------------|-(14)---------------|


 -------------------------------------------|
    E  E E E E E E E     E  E E E   E   E E E
|--------------------|------------------------||
|--------------------|------------------------||
|--------------------|------------------------||
|--------------------|------------------------||
|---2--2-2-2-2-2-2-2-|---2--2-2-2---2---2-2-2-||
|---2--2-2-2-2-2-2-2-|---2--2-2-2---2---2-2-2-||
|
|~~~~~~~~~~~~~~~~~~~~~~~~~~~
|  +W                   +H         +H
|--------------------|------------------------||
|--------------------|------------------------||
|--------------------|------------------------||
|--------------------|------------------------||
|--------------------|------------------------||
|-(14)---------------|-(14)-------(14)\-------||


 Interlude
  N.C.
  W           W            W            W
|----------|------------|------------|--------|
|----------|------------|------------|--------|
|----------|------------|------------|--------|
|----------|------------|------------|--------|
|----------|------------|------------|--------|
|----------|------------|------------|--------|
|
|                                       >
| W          +W           +W           +W
|----------|------------|------------|--------|
|----------|------------|------------|--------|
|----------|------------|------------|--------|
|----------|------------|------------|--------|
|----------|------------|------------|--------|
|-2--------|-(2)--------|-(2)--------|-(2)----|


  Gtr II
   W            +W             +W             +W
|------------|--------------|--------------|----------||
|-<5>--------|-(<5>)--------|-(<5>)--------|-(<5>)----||
|------------|--------------|--------------|----------||
|------------|--------------|--------------|----------||
|------------|--------------|--------------|----------||
|------------|--------------|--------------|----------||


 Verse 4
   W            +W             +W             +W
|------------|--------------|--------------|----------|
|-<5>--------|-(<5>)--------|-(<5>)--------|-(<5>)----|
|------------|--------------|--------------|----------|
|------------|--------------|--------------|----------|
|------------|--------------|--------------|----------|
|------------|--------------|--------------|----------|


                              E5
  Gtr I
   W             W              W             +H      +H
|------------|--------------|--------------|------------------||
|------------|--------------|--------------|------------------||
|------------|--------------|--------------|------------------||
|------------|--------------|--------------|------------------||
|------------|--------------|---2----------|--(2)-----(2)\----||
|------------|--------------|---2----------|--(2)-----(2)\----||
|
| Gtr II
|  W            +W             +W             +W
|-<5>--------|-(<5>)--------|-(<5>)--------|-(<5>)------------||
|-<5>--------|-(<5>)--------|-(<5>)--------|-(<5>)------------||
|------------|--------------|--------------|------------------||
|------------|--------------|--------------|------------------||
|------------|--------------|--------------|------------------||
|------------|--------------|--------------|------------------||


  Q=155
  D5EbE5EbE5  D5Eb5 E5D5EbE5D5F5     D5EbE5EbE5  D5Eb5 E5D5EbE5D5F5
  Gtrs I, II
  E E E E E E E E   E E E E E Q.     E E E E E E E E   E E E E E Q.
|-----------------|----------------|-----------------|----------------|
|-----------------|----------------|-----------------|----------------|
|-----------------|----------------|-----------------|----------------|
|-----------------|----------------|-----------------|----------------|
|-0-1-2-1-2-2-0-1-|-2-0-1-2-0-3----|-0-1-2-1-2-2-0-1-|-2-0-1-2-0-3----|
|-0-1-2-1-2-2-0-1-|-2-0-1-2-0-3----|-0-1-2-1-2-2-0-1-|-2-0-1-2-0-3----|


  D5EbE5EbE5  D5Eb5 E5D5EbE5D5F5     D5EbE5EbE5  D5Eb5 E5D5EbE5  D5
  E E E E E E E E   E E E E E Q.     E E E E E E E E   E E E E E Q.
|-----------------|----------------|-----------------|----------------||
|-----------------|----------------|-----------------|----------------||
|-----------------|----------------|-----------------|----------------||
|-----------------|----------------|-----------------|----------------||
|-0-1-2-1-2-2-0-1-|-2-0-1-2-0-3----|-0-1-2-1-2-2-0-1-|-2-0-1-2-2-0----||
|-0-1-2-1-2-2-0-1-|-2-0-1-2-0-3----|-0-1-2-1-2-2-0-1-|-2-0-1-2-2-0----||


   Outro
    H=H
      EbE5EbE5  D5Eb5 E5D5EbE5D5F5     D5EbE5EbE5  D5Eb5 E5D5EbE5EbD5
    E E E E E E E E   E E E E E Q.     E E E E E E E E   E E E E E Q.     4x
||------------------|----------------|-----------------|------------------||
||o-----------------|----------------|-----------------|-----------------o||
||------------------|----------------|-----------------|------------------||
||------------------|----------------|-----------------|------------------||
||o-0-1-2-1-2-2-0-1-|-2-0-1-2-0-3----|-0-1-2-1-2-2-0-1-|-2-0-1-2-1-0-----o||
||--0-1-2-1-2-2-0-1-|-2-0-1-2-0-3----|-0-1-2-1-2-2-0-1-|-2-0-1-2-1-0------||


      EbE5EbE5  D5Eb5 E5D5EbE5D5F5     D5EbE5EbE5  D5Eb5 E5D5EbE5D5F5
    E E E E E E E E   E E E E E Q.     E E E E E E E E   E E E E E Q.
||------------------|----------------|-----------------|------------------||
||o-----------------|----------------|-----------------|-----------------o||
||------------------|----------------|-----------------|------------------||
||------------------|----------------|-----------------|------------------||
||o-0-1-2-1-2-2-0-1-|-2-0-1-2-0-3----|-0-1-2-1-2-2-0-1-|-2-0-1-2-0-3-----o||
||--0-1-2-1-2-2-0-1-|-2-0-1-2-0-3----|-0-1-2-1-2-2-0-1-|-2-0-1-2-0-3------||


  E5
  W          +W           +W           +W
|----------|------------|------------|--------*|
|----------|------------|------------|--------*|
|----------|------------|------------|--------*|
|-2--------|-(2)--------|-(2)--------|-(2)----*|
|-2--------|-(2)--------|-(2)--------|-(2)----*|
|-2--------|-(2)--------|-(2)--------|-(2)----*|



Duration Legend
---------------
W - whole; H - half; Q - quarter; E - 8th; S - 16th; T - 32nd; X - 64th; a - acciaccatura
+ - note tied to previous; . - note dotted; .. - note double dotted
Uncapitalized letters represent notes that are staccato (1/2 duration)
Irregular groupings are notated above the duration line
Duration letters will always appear directly above the note/fret number it represents the
duration for.  Duration letters with no fret number below them represent rests.  Multi-
bar rests are notated in the form Wxn, where n is the number of bars to rest for.  Low
melody durations appear below the staff

Tablature Legend
----------------
 h   - hammer-on
 p   - pull-off
 b   - bend
 pb  - pre-bend
 r   - bend release (if no number after the r, then release immediately)
 /\  - slide into or out of (from/to "nowhere")
 s   - legato slide
 S   - shift slide
 - natural harmonic
[n]  - artificial harmonic
n(n) - tapped harmonic
 ~   - vibrato
 tr  - trill
 T   - tap
 TP  - trem. picking
 PM  - palm muting
\n/  - tremolo bar dip; n = amount to dip
 \n  - tremolo bar down
 n/  - tremolo bar up
/n\  - tremolo bar inverted dip
 =   - hold bend; also acts as connecting device for hammers/pulls
 <> - volume swell (louder/softer)
 x   - on rhythm slash represents muted slash
 o   - on rhythm slash represents single note slash

Misc Legend
-----------
 |  - bar
||  - double bar
||o - repeat start
o|| - repeat end
*|  - double bar (ending)
 :  - bar (freetime)
 $  - Segno
 &  - Coda
Tempo markers -  = BPM(8/16=s8/s16), where s8 = swing 8ths, s16 = swing 16ths

Suggest correction
Give kudos to tab author, rate the tab!
1 2 3 4 5
comments
print report bad tab
guest
You may want to rate the tab now too:
select rating
Wanna post a correction for this tab? Suggest correction