Oops, an error
Loading. Please wait.

All Of The Poison All Of The Pain bass

1,126 views 1 this week
1 commentread comment
1 2 3 4 5
2 more votes to show rating
add to favorites
×
Save as Personal and add changes to this tab that will be seen only by you. Learn more ›
×
You can save this tab as Personal to edit and correct it or add notes. All changes will be seen only by you. Learn more »
launch autoscroll
font size
0
reset
guitar tuner
edit
Autoscroll
slow
fast
+/-
esc
set tempo
stop
Author
Difficulty
Intro
G|---------------|--------------|--------------|--------------|   \
D|-4--4----------|4--4----------|--------------|--------------|    X5
A|------7-4--4-7-|-----7-4--4-7-|--------------|-------9--9---|    X5
E|---------------|--------------|7--7-9-2--2-2-|7--7-9------9-|   /


Verse
G|---------------|--------------|--------------|    \
D|---------7-4---|--------------|--------------|     X2
A|-9~----------7-|2~----------4-|--------------|     X2
E|---------------|--------------|2~------------|    /

G|-----------------|--------|
D|-----------------|--------|
A|-0-0-0-0-0-0-2-2-|4-4-4-2-|
E|-----------------|--------|

G|---------------|--------------|----------------|--------|
D|-4--4----------|4--4----------|----------------|--------|
A|------7-4--4-7-|-----7-4--4-7-|0-0-0-0-0-0-2-2-|4-4-4-2-|
E|---------------|--------------|----------------|--------|


Chorus
G|---------------|--------------|--------------|--------------|   \
D|-4--4----------|4--4----------|--------------|--------------|    X2
A|------7-4--4-7-|-----7-4--4-7-|--------------|-------9--9---|    X2
E|---------------|--------------|7--7-9-2--2-2-|7--7-9------9-|   /


Verse
G|---------------|--------------|--------------|
D|---------7-4---|--------------|--------------|
A|-9~----------7-|2~----------4-|--------------|
E|---------------|--------------|2~------------|

G|---------------|--------------|--------------|
D|-------976764--|--------------|--------------|
A|-9~----------7-|2~----------4-|--------------|
E|---------------|--------------|2~------------|

G|----------------|-----------------|-----------------|----------------|
D|----------------|-----------------|-----------------|----------------|
A|----------------|-2-2-2-2-2-2-2-2-|-----------------|----------------|
E|0-0-0-0-0-0-0-0-|-----------------|-2-2-2-2-2-2-2-2-|2-2-2-2-2-2-2-2-|

G|----------------|-----------------|-----------------|----------------|
D|----------------|-----------------|-----------------|----------------|
A|----------------|-2-2-2-2-2-2-2-2-|-----------------|----------------|
E|0-0-0-0-0-0-0-0-|-----------------|-2-2-2-2-2-2-2-2-|2---------------|

G|-----------------|--------|          \
D|-----------------|--------|           \
A|-0-0-0-0-0-0-2-2-|4-4-4-2-|            \
E|-----------------|--------|             \
                                            X2
G|---------------|--------------|         /  
D|-4--4----------|4--4----------|        /
A|------7-4--4-7-|-----7-4--4-7-|       /
E|---------------|--------------|      /

G|-----------------|--------|
D|-----------------|--------|
A|-0-0-0-0-0-0-2-2-|4-4-4-2-|
E|-----------------|--------|


Chorus
G|---------------|--------------|--------------|--------------|   \
D|-4--4----------|4--4----------|--------------|--------------|    X2
A|------7-4--4-7-|-----7-4--4-7-|--------------|-------9--9---|    X2
E|---------------|--------------|7--7-9-2--2-2-|7--7-9------9-|   /


Bridge
G|----------------|----------------|----------------|----------------|
D|-4-4-4-4-4-4-4-4|-4-4-4-4-4-4-4-4|----------------|----------------|
A|----------------|----------------|-2-2-2-2-2-2-2-2|----------------|
E|----------------|----------------|----------------|-2-2-2-2-2-2-2-2|

G|----------------|----------------|----------------|----------------|
D|-4-4-4-4-4-4-4-4|-2-4-4-2-4-4-2-4|----------------|----------------|
A|----------------|----------------|-2-2-2-2-2-2-2-2|----------------|
E|----------------|----------------|----------------|-2-2-2-2-2-2-2-2|


Verse
G|----------------|-----------------|-----------------|----------------|
D|----------------|-----------------|-----------------|----------------|
A|----------------|-2-2-2-2-2-2-2-2-|-----------------|----------------|
E|0-0-0-0-0-0-0-0-|-----------------|-2-2-2-2-2-2-2-2-|2-2-2-2-2-2-2-2-|

G|----------------|-----------------|-----------------|----------------|
D|----------------|-----------------|-----------------|----------------|
A|----------------|-2-2-2-2-2-2-2-2-|-----------------|----------------|
E|0-0-0-0-0-0-0-0-|-----------------|-2-2-2-2-2-2-2-2-|2-2-2-2-2-2-2-2-|


Chorus
G|---------------|--------------|--------------|--------------|   \
D|-4--4----------|4--4----------|--------------|--------------|    X4
A|------7-4--4-7-|-----7-4--4-7-|--------------|-------9--9---|    X4
E|---------------|--------------|7--7-9-2--2-2-|7--7-9------9-|   /

G|---------------|--------------|--------------|--------------|
D|-4--4----------|4-7-4---------|--------------|--------------|
A|------7-4--4-7-|------7-4-4-7-|--------------|-------9--9---|
E|---------------|--------------|7--7-9-2--2-2-|7--7-9------9-|
  

G|---------------|--------------|--------------|--------------|
D|-4--4----------|4--4----------|--------------|--------------|
A|------7-4--4-7-|-----7-4--4-7-|--------------|-------9--9---|
E|---------------|--------------|7--7-9-2--2-2-|7--7-9------9-|

G|---------------|
D|---------------|
A| 9\------------|
E|---------------|


Tabbed by: Scott Watters

If there's any changes than need to be made, then feel free to tell me. But I think it's near enough perfect the
way it is. 

Here's a video of this tab in action
https://www.youtube.com/watch?v=v4xvKJ7Sl6A



| /  slide up
| \  slide down
| h  hammer-on
| p  pull-off
| ~  vibrato
| +  harmonic
| x  Mute note

            
            
Suggest correction
Creating personal tab
Creating personal tab
You can edit any tab online and save it as your Personal.

You can edit, replace or remove any tab part or add personal notes – all changes will be seen only by you.

Personal tabs can be accessed anytime from any device, even offline.
Learn more »
Give kudos to tab author, rate the tab!
1 2 3 4 5
comments
print report bad tab
1 comment total.
0 reply
felixayotte 10 May 13, 2016 10:49 AM

Hi Scott I wanted to learn this song for a while now so great thanks but I noticed somethings that could make the riffs easier to play. The notes are the same but at different places.

Intro/Chorus
G|---------------|--------------|--------------|--------------|
D|-4--4-2------2-|4--4-2------2-|--------------|-------4--4---|
A|--------4--4---|-------4--4---|2--2-4--------|2--2-4------4-|
E|---------------|--------------|-------2--2-2-|--------------|

Verse
G|---------2-----|--------------|--------------|
D|-4~--------4-2-|--------------|--------------|
A|---------------|2~----------4-|--------------|
E|---------------|--------------|2~------------|

G|-------42121---|--------------|--------------|
D|-4~---------42-|--------------|--------------|
A|---------------|2~----------4-|--------------|
E|---------------|--------------|2~------------|

It's not in anyway better but ir's another way to play it.

guest
You may want to rate the tab now too:
select rating
Wanna post a correction for this tab? Suggest correction