Oops, an error
Loading. Please wait.

Brandenburg Gate Chords

version 1
version 1

Whole song

  • Intro riff, normal rock version.
94 views 9 this week
no commentswrite comment
1 2 3 4 5
2 more votes to show rating
add to favorites
launch autoscroll
font size
0
reset
transpose
0
reset
simplify chords
display chords
guitar tuner
Autoscroll
slow
fast
+/-
esc
set tempo
stop
Help us to improve Ultimate-Guitar.com Take our survey!
×
Author
Difficulty
novice
About this tab version
Intro riff, normal rock version. Was this info helpful? Yes No
[Riff]

e|-7-7---------7-7---------7-7-----------------------------------------------|
B|-7-7--5-4----7-7-5-4-----7-7-5-4-------------------------------------------|
G|----------4~---------4~----------4---4-6-6-4h6-6b8b6-4---------------------| x2
D|-----------------------------------6---------------------------------------|
A|---------------------------------------------------------------------------|
E|---------------------------------------------------------------------------|


[Intro]
B  E  B  E  B  F# (2x)


[Verse]
       B                             B E B
Well I lost my baby to a foreign war
              B                                             B E B
Then she was cut down in the gunfire of the Western world
(palm mute)
           E       B          F#
She was living in sin, I was living in a lie
           E              B            F#
She was caught up in the glimmer of a rich man's eye
E           B                F#
I couldn't see it from the other side 
           E     B             F# 
They said "Son, There's no glory in your pride"


[Chorus]
B                    E           B            E           B        F#
I will wait, at the Brandenburg Gate, at the Brandenburg Gate I'll wait (2x)
     B  E  B  E  B  F# (2x)
I'll wait


[Riff]
e|-7-7---------7-7---------7-7-----------------------------------------------|
B|-7-7--5-4----7-7-5-4-----7-7-5-4-------------------------------------------|
G|----------4~---------4~----------4---4-6-6-4h6-6b8b6-4---------------------| x2
D|-----------------------------------6---------------------------------------|
A|---------------------------------------------------------------------------|
E|---------------------------------------------------------------------------|


[Verse 2]
       B                           B E B
Well I lost my baby to a foreign war 
              B                                          B E B
Then she was cut down in the gunfire of the Western world
(palm mute)   
              E                B              F#
Yeah, she was searching for salvation in the things you buy
         E               B               F#       
I was finding all the reasons to give up on life 
        E                    B       F#
If you love something then give it away
       E                  B
No, you can't come back unless you're free


[Chorus]
B                   E           B            E           B        F#
I will wait, at the Brandenburg Gate, at the Brandenburg Gate I'll wait (2x)    
     E         B          F#
I'll wait, I'll wait, I'll wait


[Interlude]
 E         B      F#      B     E        B        F#         
Somewhere in the in-between, where the East and the West meet
      E          B        F#       B      E             B        F# (palm mute, then get louder)
The thirty-year war where I came clean, that's where you'll find me
      F# (palm mute, then get louder)
I'll wait 
      B 
I'll wait

(Drums)
Woah, oh, Woah, Woah, Woah!
(Palm mute)
B         E     B     F#
Woah, oh, Woah, Woah, Woah! x2


[Chorus]
B                   E           B            E           B         F#
I will wait, at the Brandenburg Gate, at the Brandenburg Gate I'll wait (4x)     
         E         B/D#      F#
so I'll wait, I'll wait, I'll wait


[Outro]
          B                             B          
Well, I lost my baby to a foreign war... 

B/D#
e|---------------------|
B|---------------------|
G|-7-------------------|
D|-9-------------------|
A|-6-------------------|
E|---------------------|

************************************

| h   Hammer-on
| b   Bend

************************************
Suggest correction
Give kudos to tab author, rate the tab!
1 2 3 4 5
comments
print report bad tab
guest
You may want to rate the tab now too:
select rating
Wanna post a correction for this tab? Suggest correction