Oops, an error
Loading. Please wait.

Bring Out Your Dead tab

version 1
version 1

Whole song

Interactive

3,275 views 9 this week
3 commentsread comments
1 2 3 4 5
x 3
add to favorites
×
Save as Personal and add changes to this tab that will be seen only by you. Learn more ›
×
You can save this tab as Personal to edit and correct it or add notes. All changes will be seen only by you. Learn more »
launch autoscroll
font size
0
reset
how to read this tab
guitar tuner
backing track
0:00
0:00
edit
Autoscroll
slow
fast
+/-
esc
set tempo
stop
Anti-Flag

Bring Out Your Dead

I really couldnt find this tab anywhere. so i just sat down and figured it out.
It took me about one-half an hour but i did it for all you guys/girls.

e|---------------------------------------------------------------------------| 
B|---------------------------------------------------------------------------| 
G|--5/6--------<<<-----------------------------------------------------------| 
D|--x-x--------<<<-----------------------------------------------------------| 
A|--3/4--------<<<-----------------------------------------------------------| 
E|---------------------------------------------------------------------------| 

e|---------------------------------------------------------------------------| 
B|---------------------------------------------------------------------------| 
G|--6--4--9--8----11---6--4--9--8--13-11-------------------------------------| 
D|--x--x--x--x--7--x---x--x--x--x---x--x-------------------------------------| 
A|--4--2--7--6-----9---4--2--7--6--11--9-------------------------------------| 
E|--------------5------------------------------------------------------------| 

e|---------------------------------------------------------------------------| 
B|----*-----------------*---------------*--------------*---------------------| 
G|---6--9--11----------6--11--9--------6--9-11--------6--11--9---#---#-------| 
D|---6--x---x--7--9----6---x--x--9--7--6--x--x--7--9--6---x--x--7---9--------| 
A|---4--7---9--7--9----4---9--7--9--7--4--7--9--7--9--4---9--7--7---9--------| 
E|-------------5--7--------------7--5-----------5--7------------5---7--------| 

e|---------------------------------------------------------------------------| 
B|-------------------------------------(7b)----------------------------------| 
G|---9--9----------9--9------------------------------------------------------| 
D|---9--9--9--7----9--9--xx9xx9xx9xx9----------------------------------------| 
A|---7--6--9--7----7--6--xx9xx9xx9xx9----------------------------------------| 
E|---------7--5----------xx7xx7xx7xx7----------------------------------------| 


e|-------------------------------------------------------------------------------------| 
B|-------------------------------------------------------------------------------------| 
G|--6--4--9--8----11---6--4--9--8--13-11---16-14-16-14-16--14-12-11-12-11-9-7-6-9-7-6--| 
D|--x--x--x--x--7--x---x--x--x--x---x--x----x--x--x--x--x---x--x--x--x--x-x-x-x-x-x-x--| 
A|--4--2--7--6--x--9---4--2--7--6--11--9---14-12-14-12-14--12-10--9-10--9-7-5-4-7-5-4--| 
E|--------------5----------------------------------------------------------------------| 

then play verse and chorus again 

breakdown 1:41 
e|---------------------------------------------------------------------------| 
B|---------------------------------------------------------------------------| 
G|--6--9--8------------------------------------------------------------------| 
D|--x--x--x--9--7------------------------------------------------------------| 
A|--4--7--6--x--x------------------------------------------------------------| 
E|-----------7--5------------------------------------------------------------| 
 I'm not quite sure about that 2nd chord (in the chorus) but i'm pretty sure the
rest is right. And this song is on two c.d.'s: 'Mobilize' and 'Underground Network'


enjoi

            
            
Suggest correction
Creating personal tab
Creating personal tab
You can edit any tab online and save it as your Personal.

You can edit, replace or remove any tab part or add personal notes – all changes will be seen only by you.

Personal tabs can be accessed anytime from any device, even offline.
Learn more »
Give kudos to tab author, rate the tab!
1 2 3 4 5
comments
print report bad tab
3 comments total.
0 reply
Adam_Harrison9 171 Aug 07, 2008 06:39 AM

The octave section is wrong for the second part.

It's definitley not:

16-14
x--x
14-12

0 reply
xbobafett 10 Aug 20, 2009 01:40 PM

The "octave section", as mentioned by Adam Harrison9 is wrong.
They hit the C# not the B, but descend down like this.

C# B C# B C# B A G# A G# F# E D# C#
-------------------------------------------------------------
-------------------------------------------------------------
-18-16-18-16---18-16-14-13--14-13-11-9-8---------6-----------
-X--X--X--X----X--X--X--X---X--X--X--X-X--END ON-X-----------
-16-14-16-14---16-14-12-11--12-11-9--7-6---------4-----------
-------------------------------------------------------------
(Listen for Strumming)

As well, this song is played in the Key of E.
So the chord progression you posted for the chorus is mostly incorrect. I don't even see how that could have made sense playing it that way, but here it is anyways.

1st + 3rd time 2nd time + 4th time After 4th play
|--------------|-----------------------|-----------------|
|--------------|-----------------------|----------7b~----|
|-9------------|-9---------------------|-----------------|
|-9--9--11-9-7-|-9--9----7---7---7---7-|-99999999--------|
|-7--9--11-9-7-|-7--9--XX7-XX7-XX7-XX7-|-99999999--------|
|----7--9--7-5-|----7--XX5-XX5-XX5-XX5-|-77777777--------|
(Listen for strumming) .. .. .. ..

There's also a lead second-part during the third run of the chorus if you want to switch it up a bit.
then back to 4th
|-------------------------|-----------------------|
|-------------------------|-----------------------|
|-9--9--9--8--9--11-13-11-|-9---------------------|
|-X--X--X--X--X--X--X--X--|-X--9----7---7---7---7-|
|-7--7--7--6--7--9--11-9--|-7--9--XX7-XX7-XX7-XX7-|
|-------------------------|----7--XX5-XX5-XX5-XX5-|
(Again.. Listen for Strumming)

0 reply
FloggingMolly87 10 Apr 25, 2010 12:56 PM

The intro is more like this:
(11's)
|------------------------------------|
|------------------------------------|
|--66-44-999-888-999-111111----------|
|--xx-xx-xxx-xxx-xxx-xxxxxx----------|
|--44-22-777-666-777-999999----------|
|------------------------------------| x2

then

|--------------------|
|--------------------|
|--11-9/7/5/4--------|
|--x--x/x/x/x--------|
|--9--7/5/3/2--------|
|--------------------|

guest
Wanna post a correction for this tab? Suggest correction