Oops, an error
Loading. Please wait.

Captain Anarchy tab

version 1
version 1

Whole song

Interactive

4,174 views 6 this week
3 commentsread comments
1 2 3 4 5
x 8
add to favorites
×
Save as Personal and add changes to this tab that will be seen only by you. Learn more ›
×
You can save this tab as Personal to edit and correct it or add notes. All changes will be seen only by you. Learn more »
launch autoscroll
font size
0
reset
how to read this tab
guitar tuner
edit
Autoscroll
slow
fast
+/-
esc
set tempo
stop
Author
Intro 
e|---------------------------------------------------------------------------| 
B|---------------------------------------------------------------------------| 
G|--------------------8xxxxxxxx----------------------------------------------| 
D|pick slide, then:---8xxxxxxxx----------------------------------------------| 
A|--------------------6xxxxxxxx----------------------------------------------| 
E|---------------------------------------------------------------------------| 

After that(also Chorus) - 
e|---------------------------------------------------------------------------| 
B|---------------------------------------------------------------------------| 
G|--8--6---------------------------------------------------------------------| 
D|--8--6--6------------------------------------------------------------------| 
A|--6--4--6------------------------------------------------------------------| 
E|--------4------------------------------------------------------------------| 

Verses - 
e|---------------------------------------------------------------------------| 
B|---------------------------------------------------------------------------| 
G|--8xxx8xxx--6xx------------------------------------------------------------| 
D|--8xxx8xxx--6xx--6xxx------------------------------------------------------| 
A|--6xxx6xxx--4xx--6xxx------------------------------------------------------| 
E|-----------------4xxx------------------------------------------------------| 

Riff inbetween verses/solo - 
e|---------------------------------------| 
B|---------------------------------------| 
G|--8-6-----8-6-----10-8-6-8-6-----------| 
D|-------8-------8--------------8--------| 
A|---------------------------------------| 
E|---------------------------------------| 


Bridge - (at the the end of the bridge the riff is played palm muted) 
E|----------------------------------| 
B|----------------------------------| 
G|-3----6---------------------------| 
D|-3----6---------------------------| 
A|-1----4---------------------------| 
E|----------------------------------|
Suggest correction
Creating personal tab
Creating personal tab
You can edit any tab online and save it as your Personal.

You can edit, replace or remove any tab part or add personal notes – all changes will be seen only by you.

Personal tabs can be accessed anytime from any device, even offline.
Learn more »
comments
print report bad tab
3 comments total.
0 reply
boywithguitar 10 Apr 07, 2003 08:00 PM

you should tab no difference

0 reply
lucky thirteen 70 Aug 28, 2003 08:00 PM

wicked tab, anti flag rule!!!!!!!!!!!!!

0 reply
The Real AJ 325 Aug 25, 2008 05:09 PM

this is a great tab but if u want it easier (idk if u will htink its easier or not) but
e|---------------------------------------|
B|---------------------------------------|
G|--8-6-----8-6-----10-8-6-8-6-----------|
D|-------8-------8--------------8--------|
A|---------------------------------------|
E|---------------------------------------|

instead of hitting the 10th fret hit the 6th fret on the b string

guest
You may want to rate the tab now too:
select rating
Wanna post a correction for this tab? Suggest correction