Oops, an error
Loading. Please wait.

Depleted Uranium Is A War Crime tab

version 1
version 1

Whole song

1,809 views 1 this week
5 commentsread comments
1 2 3 4 5
x 3
add to favorites
×
Save as Personal and add changes to this tab that will be seen only by you. Learn more ›
×
You can save this tab as Personal to edit and correct it or add notes. All changes will be seen only by you. Learn more »
launch autoscroll
font size
0
reset
how to read this tab
guitar tuner
edit
Autoscroll
slow
fast
+/-
esc
set tempo
stop
Author
Difficulty
ps=pickslide
lr=let ring
*=palm mute
b=bend to

Intro:

Guitar 1-

E|-------------------------------------------------------------------|
B|-------------------------------------------------------------------|
G|-6-6-6-6-6-9-9-----------------------------------------------------|
D|-6-6-6-6-6-9-9-7-7-7-7-7-9-9-6-6-6-6-6-6-6-6-7-7-7-7-9-9-9-9-------|
A|-4-4-4-4-4-7-7-7-7-7-7-7-9-9-6-6-6-6-6-6-6-6-7-7-7-7-9-9-9-9-------|
E|----------------5-5-5-5-5-7-7-4-4-4-4-4-4-4-4-5-5-5-5-7-7-7-7------|

Guitar 2-
E|----------------------------------------------------------------------|
B|-9-9-----9-9-----9-9-----9-9-----9-9-----9-9-----9-9------------------|
G|-----9-9-----9-9-----9-9-----9-9-----9-9-----9-9-----9-9-8-9-8-6------|
D|----------------------------------------------------------------------|
A|----------------------------------------------------------------------|
E|----------------------------------------------------------------------|

Verse:

Guitar 1 & 2-

E|------------------------------------------------------------|
B|------------------------------------------------------------|
G|----6-6-6-9-8-6-2-2-2-4-4-4---------------------------------|
D|----6-6-6-9-8-6-2-2-2-4-4-4---------------------------------|
A|----4-4-4-7-6-4-0-0-0-2-2-2---------------------------------|
E|-ps---------------------------------------------------------|

Chorus:

Guitar 1 & 2-

E|--------------------------------------------------------------------|
B|--------------------------------------------------------------------|
G|--------------------------------------------------------------------|
D|-6-6-6-6-6-6-6-6-9-9-9-9-9-9-9-9-11-11-9-11-11-9-11-11-9-11-9-------|
A|-6-6-6-6-6-6-6-6-9-9-9-9-9-9-9-9-11-11-9-11-11-9-11-11-9-11-9-------|
E|-4-4-4-4-4-4-4-4-7-7-7-7-7-7-7-7--9--9-7--9--9--7-9--9--7-9--7------|

Chorus end 1-

E|-----------------------------------------------------------|
B|-----------------------------------------------------------|
G|-----------------------------------------------------------|
D|-11-11-11--------------------------------------------------|
A|-11-11-11--------------------------------------------------|
E|--9--9--9--------------------------------------------------|

Chorus end 2-

E|------------------------------------------------------------|
B|------------------------------------------------------------|
G|------------------------------------------------------------|
D|-11-lr------------------------------------------------------|
A|-11-lr------------------------------------------------------|
E|--9-lr------------------------------------------------------|

Bridge:

Guitars 1 & 2-

E|-----------------------------------------------------------|
B|-----------------------------------------------------------|
G|-13-13-9-9-8-8---------------------------------------------|
D|-13-13-9-9-8-8---------------------------------------------|
A|-11-11-7-7-6-6---------------------------------------------|
E|-----------------------------------------------------------|
      *     *   *  *   *  *
"....Half life, 4.5 billion"

then-

Guitar 1-

E|-------------------------------------------------------------------|
B|-------------------------------------------------------------------|
G|-6-6-6-6-6-9-9-----------------------------------------------------|
D|-6-6-6-6-6-9-9-7-7-7-7-7-9-9-6-6-6-6-6-6-6-6-7-7-7-7-9-9-9-9-------|
A|-4-4-4-4-4-7-7-7-7-7-7-7-9-9-6-6-6-6-6-6-6-6-7-7-7-7-9-9-9-9-------|
E|----------------5-5-5-5-5-7-7-4-4-4-4-4-4-4-4-5-5-5-5-7-7-7-7------|

Guitar 2-

E|----------------------------------------------------------------------|
B|-9-9-----9-9-----9-9-----9-9-----9-9-----9-9-----9-9------------------|
G|-----9-9-----9-9-----9-9-----9-9-----9-9-----9-9-----9-9-8-9-8-6------|
D|----------------------------------------------------------------------|
A|----------------------------------------------------------------------|
E|----------------------------------------------------------------------|

Solo:

Guitar 1-

E|------------------------------------------------------------|
B|------------------------------------------------------------|
G|----6-6-6-9-8-6-2-2-2-4-4-4---------------------------------|
D|----6-6-6-9-8-6-2-2-2-4-4-4---------------------------------|
A|----4-4-4-7-6-4-0-0-0-2-2-2---------------------------------|
E|-ps---------------------------------------------------------|

Guitar 2-

E|----------------------------------------------------------------------------|
B|----------------------------------------------------------12b14-12-12b14----|
G|-12b13-13-13-13-12 10-6-9-6-11-9-6-12b13-13-13-13-12-9----------------------|
D|----------------------------------------------------------------------------|
A|----------------------------------------------------------------------------|
E|----------------------------------------------------------------------------|

E|-----------------------------------------------14-------------|
B|-12b14-12-9------12b14-12-9------12b14b12-14---14-12----------|
G|------------11-9-------------11-9----------------------12b----|
D|--------------------------------------------------------------|
A|--------------------------------------------------------------|
E|--------------------------------------------------------------|

The end is too hard to figure out without the right effects, but if you play the riff 
a wah wah pedal it might work, I don't have one so I couldnt check.
Hope this helped

            
            
Suggest correction
Creating personal tab
Creating personal tab
You can edit any tab online and save it as your Personal.

You can edit, replace or remove any tab part or add personal notes – all changes will be seen only by you.

Personal tabs can be accessed anytime from any device, even offline.
Learn more »
Give kudos to tab author, rate the tab!
1 2 3 4 5
comments
print report bad tab
5 comments total. Showing first comments.
0 reply
antiflag125462 1,091 Aug 17, 2006 12:50 PM

all the ryhtm is right, but i know alot of the lead is wrong. i could just write all of my findings here or just post another tab, so i think i will just post another tab.

0 reply
antiflag125462 1,091 Aug 17, 2006 01:17 PM

nevermind im to lazy to wait a day

Intro Lead(technically same as yours but played different)
e|-4-0-4-0-4-0-4-0-4-0-4-0-4-0--------
B|-----------------------------4-5-4-2

You forgot this background riff during the bridge or whatever
E|-5-4-0-5-4-0-5-4-0-5-4-0-5-4-0-5-4-0-7-5-4|x2
B|------------------------------------------|

Solo(not sure about the last few notes)
E|-------------------------------------------------
B|--9b11--9b11--9b11--9b11--9b11--9b11-------------
G|-11b13-11b13-11b13-11b13-11b13-11b13----9---11-9-
D|--------------------------------------11--11-----
A|-------------------------------------------------
E|-------------------------------------------------

E|-------------------------------------------------
B|--9b11--9b11--9b11--9b11--9b11--9b11-12b14-12b13-
G|-11b13-11b13-11b13-11b13-11b11-11b13-------------
D|-------------------------------------------------
A|-------------------------------------------------
E|-------------------------------------------------

E|-------------------------------12----------------------
B|-12b14-10----12b14-10----12b14----12-10-12b14-10-------
G|----------11----------11-------------------------12b14-
D|-------------------------------------------------------
A|-------------------------------------------------------
E|-------------------------------------------------------

0 reply
-LN237- 234 Aug 17, 2006 01:35 PM

Alrite thanks is there neway i can get this onto the tab?

guest
You may want to rate the tab now too:
select rating
Wanna post a correction for this tab? Suggest correction