Oops, an error
Loading. Please wait.

Die For Your Government bass

version 3
version 3

Whole song

Interactive

6,216 views 6 this week
3 commentsread comments
1 2 3 4 5
x 11
add to favorites
×
Save as Personal and add changes to this tab that will be seen only by you. Learn more ›
×
You can save this tab as Personal to edit and correct it or add notes. All changes will be seen only by you. Learn more »
launch autoscroll
font size
0
reset
guitar tuner
edit
Autoscroll
slow
fast
+/-
esc
set tempo
stop
----------------------------------------------------------------------------                
Die For Your Government - Anti-Flag
----------------------------------------------------------------------------

I had to make a tab for this song sorry to say but the other tabs are way off.

Tabbed By :josh 
e-mail: scrubster2002@yahoo.com 

Tuning: standard EADG

Chorus
G|-------------------------------------------------------------------------|
D|-------------------------------------------------------------------------|
A|-444-------------------444-----77----22--444------------------444-----7--|
E|-----555--000--2222--------555---------------555--000--2222-------555----|

Verse
G|---------------------|
D|---------------------|
A|--44764476-----------|
E|-----------22542222--|

Bridge
G|-------------------------------------------------------------------------|
D|-------------------------------------------------------------------------|
A|--44444444-------44444444-----77--44444444--------44444444---------------|
E|---------55555555--------5555-------------55555555--------5--------------|

G|--------------------------------|
D|---11--9-------11--9------11--9-|
A|--------------------------------|
E|--------------------------------|

Here's the order you play the song the song:
Chorus
Verse x12
Chorus
Verse x12
Chorus
Bridge
Chorus(play as long as u feel like)

Well theres's the tab for ya. Email me if u got any questions or comments. Please rate!

            
            
Suggest correction
Creating personal tab
Creating personal tab
You can edit any tab online and save it as your Personal.

You can edit, replace or remove any tab part or add personal notes – all changes will be seen only by you.

Personal tabs can be accessed anytime from any device, even offline.
Learn more »
comments
print report bad tab
3 comments total.
0 reply
666Devil666 10 Mar 29, 2008 11:05 PM

TIS a great tab thx!

0 reply
jdanger 31 Jun 14, 2008 10:37 AM

verse is wrong.

|--------------------------------|
|-----2-1-----2-1----------------|
|-4-4-----4-2---------------0-2-3|
|-----------------2-2-5-4-2------|

0 reply
einar 166 Aug 04, 2009 10:35 AM

Perfect tab with the correction in there

guest
Wanna post a correction for this tab? Suggest correction