Oops, an error
Loading. Please wait.

Fabled World Tab

649 views 15 this week
no commentswrite comment
1 2 3 4 5
1 last vote to show rating
add to favorites
launch autoscroll
font size
0
reset
how to read this tab
guitar tuner
Autoscroll
slow
fast
+/-
esc
set tempo
stop
Author
Difficulty
novice
About this tab version
Added with intro tabs and chorus lead. No solo though. Corrected chords from other versions. Was this info helpful? Yes No
[Riff]

e|---------------------------------------------------------------------------|
B|---------------------------------------------------------------------------|
G|---------------------------------------------------------------------------|
D|-6-----6-----6-7-6---4---------6-----6-----6-7-6-7-9-----------------------|
A|---7-4---7-4-------7---6\4-2-----7-4---7-4-----------6\4-2-----------------|
E|---------------------------------------------------------------------------|

[Chorus Lead]

e|-----------------------------------------------------------------------------------|
B|-----------------------------------------------------------------------------------|
G|-6-6-6-6-9-9-11-11-6-6-6-6-9-9-11-11-13-13-13-13-14-14-13-13-11-11-11-11-9-9-8-8---|
D|-x-x-x-x-x-x-x--x--x-x-x-x-x-x-x--x--x-x-x-x-x-x-x-x-x-x-x-x-x--x--x--x--x-x-x-x---|
A|-4-4-4-4-7-7-9--9--4-4-4-4-7-7-9--9--11-11-11-11-12-12-11-11-9--9--9--9--7-7-6-6---| x2
E|-----------------------------------------------------------------------------------|

Play power chords

[Intro]

A          E
We live in a fabled world
    E                B
Of dreaming boys and wide-eyed girls
A                  E 
Where precious few get a fair start
B
These times can break you
B
These times can leave you
Torn apart

[Riff]
C#m    E     E     B x 2

[Verse]
C#m                  E
The story starts with genocide
E              B
slavery those terrorized
C#m                E
families, cultures torn apart
     E            B
This ugly truth, only the start
          C#m                    
And it's a white washed pact
E
The founding act
E             B
Revolution or contract?
C#m             E            B
To subjugate, to torture, to abuse 
for the few

[Chorus]
C#m                    A
We live in a fabled world
                  E
Of terror day and night
                    B
All hidden in plain sight
C#m                    A
We live in a fabled world
                      E 
Where the poor and the weak
                      B
Are pawns for profit's sake

[Riff]
C#m    E     E     B x 2

[Verse]
C#m  (Hold)               
Lock up, mass incarcerate  
The new jim crow, the new slave trade
If doctor king were here today
He'd fight for much more than a dream
C#m                      E
And you should go sign up
               E                  
Join the fight, the rich sleep 
           B 
While you kill tonight
C#m             E
Love thy enemy as yourself
       E               
As you carpet bomb him to hell

[Chorus]
C#m                    A
We live in a fabled world
                  E
Of terror day and night
                    B
All hidden in plain sight
C#m                    A
We live in a fabled world
                      E 
Where the poor and the weak
                      B
Are pawns for profit's sake

[Solo] (Chorus Chords)

[Verse]

A             E
We live in a fabled world
   E           B    
A corpocratic killing field
A                  E
Where fascist profits are a lock
B
These times can break you
B
These times can leave you
Torn apart

[Riff]

YEAHHHHH!!!

[Chorus]

C#m                    A
We live in a fabled world
                  E
Of terror day and night
                    B
All hidden in plain sight
C#m                    A
We live in a fabled world
                      E 
Where the poor and the weak
                      B
Are pawns for profit's sake

C#m                     A
We live in a fabled world 
E                       B
We live in a fabled world
B
These times can break you
B
These times can leave you, 
          C#m
Torn apart
Suggest correction
Give kudos to tab author, rate the tab!
1 2 3 4 5
comments
print report bad tab
guest
You may want to rate the tab now too:
select rating
Wanna post a correction for this tab? Suggest correction