Oops, an error
Loading. Please wait.

For Blood And Empire album bass

4,528 views 6 this week
4 commentsread comments
1 2 3 4 5
x 8
add to favorites
×
Save as Personal and add changes to this tab that will be seen only by you. Learn more ›
×
You can save this tab as Personal to edit and correct it or add notes. All changes will be seen only by you. Learn more »
launch autoscroll
font size
0
reset
guitar tuner
edit
Autoscroll
slow
fast
+/-
esc
set tempo
stop
Author
Difficulty
This is Anti-Flags new album, not there best one but decent.

1. Id Tell You But...
2. The Press Corpse
3. Exodus/Emigre
4. The Project For A New American Century
5. Hymn For The Dead
6. This Is The End (For You My Friend)
7. One Trillion Dollars
8. State Funeral
9. Confessions Of An Economic Hitman
10. War Sucks, Let's Party!
11. The W.T.O Kills Farmers
12. Cities Burn
13. Depleted Uranium Is A War Crime

1. Id Tell You But...
Intro:

G|----------------------------------------------------------------|
D|----------------------------------------------------------------|
A|----------------------------------------------------------------|x2
E|-9-9-9-9-9-9-9-9-0-0-0-0-0-0-0-0-5-5-5-5-5-5-5-5-0-0-0-0-7-7-7-7|

Verse:

G|-----------------------------------------------------------------------|
D|-------------------------------------------------------7-7---------7-7-|
A|---11-11---11-11---11-11---11-11---7-6-7-6---6---7-7---------7-7-------|
E|-9-------9-------9-------9-------0---------7---5-----5-----5-----5-----|

G|----------------|
D|-------4--------|
A|--7-7----7-6-7-4|x2
E|7----7----------|

Pre-Chorus:

G|---------------------------|
D|-------------------------9-|
A|-----------------------9---|
E|-5-5-5-5-5-5-9-9-7-7-7-----|

Chorus:

G|----------------------------------------------------------------|
D|----------------------------------------------------------------|
A|----------------------------------------------------------------|x2
E|-9-9-9-9-9-9-9-9-0-0-0-0-0-0-0-0-5-5-5-5-5-5-5-5-7-7-7-7-7-7-7-7|

G|------------------------------------------------------|
D|---------------9---------------6-----------4---4-6-4--|
A|---11-12-11-12---12-11-7-9-7-9---9-7-6---7---7-------7|
E|-9-------------------------------------5--------------|

During Guitar Solo:

G|----------------------------------------------------------------|
D|----------------------------------------------------------------|
A|----------------------------------------------------------------|x2
E|-9-9-9-9-9-9-9-9-0-0-0-0-0-0-0-0-5-5-5-5-5-5-5-5-0-0-0-0-7-7-7-7|

Verse:

G|-----------------------------------------------------------------------|
D|-------------------------------------------------------7-7---------7-7-|
A|---11-11---11-11---11-11---11-11---7-6-7-6---6---7-7---------7-7-------|
E|-9-------9-------9-------9-------0---------7---5-----5-----5-----5-----|

G|----------------|
D|-------4--------|
A|--7-7----7-6-7-4|x2
E|7----7----------|

Pre-Chorus:

G|---------------------------|
D|-------------------------9-|
A|-----------------------9---|
E|-5-5-5-5-5-5-9-9-7-7-7-----|
Chorus:

G|----------------------------------------------------------------|
D|----------------------------------------------------------------|
A|----------------------------------------------------------------|x2
E|-9-9-9-9-9-9-9-9-0-0-0-0-0-0-0-0-5-5-5-5-5-5-5-5-7-7-7-7-7-7-7-7|

G|---------------------------------------------------------------|
D|---------------9---------------6-----------4---4-6-4-----------|
A|---11-12-11-12---12-11-7-9-7-9---9-7-6---7---7-------7---11-11-|
E|-9-------------------------------------5---------------9-------|

G|-----------------------------------------------------------------|
D|------------------------------9---------------6-----------4---4--|
A|--11-11-7-6---6---11-12-11-12---12-11-7-9-7-9---9-7-6---7---7----|
E|9-----------9---9-------------------------------------5----------|

G|------|
D|6-4---|
A|----7-|
E|------|


Outro:

G|----------------------------------------------------------------------------6|
D|------------------------------------------------------------------------4-6--|
A|-------------------------------------------------------------------4-7-------|
E|-9-9-9-9-9-9-9-9-0-0-0-0-0-0-0-0-5-5-5-5-5-5-5-5-0-0-0-0-7-7-7-5-7-----------|








2. The Press Corpse

Intro:

G|------------------|
D|------------------|
A|-----------8-6----|
E|-6-6-6-6-6-----9-6|

Verse:

G|-----------------------------------------------------------6---|
D|-------------------------------------3-3-4-4-6-----3---3-------|x2
A|---8-6-8-9-8-6-----8-6-8-9-8-6---4-4-------------6---6---6-----|
E|-6-------------9-6-------------6---------------4---------------|

G|-----------------------------------------------------------------|
D|-----------------------------------------------------------------|
A|---------------------------------1-1-1-1-1-1-1-1-4-4-4-4-4-4-4-4-|
E|-2-2-2-2-2-2-2-2-2-2-2-2-2-2-2-2---------------------------------|

G|---------------------------------------------------------------|
D|-------------------------------------3-3-4-4-6-----3---3-------|x2
A|---8-6-8-9-8-6-----8-6-8-9-8-6---4-4-------------6---6---6-4-3-|
E|-6-------------9-6-------------6---------------4---------------|

Pre-Chorus:

G|---------3---------------3---------------3-----------------------|
D|-3-4-3-6---6-4-3-3-4-3-6---6-4-3-3-4-3-6---6-4-3---6-4-3-4-3-4-3-|
A|-----------------------------------------------------------------|
E|-------------------------------------------------4---------------|

G|---------3---------------3---------------3-------------------|
D|-3-4-3-6---6-4-3-3-4-3-6---6-4-3-3-4-3-6---6-4-3-------------|
A|-------------------------------------------------------------|
E|-------------------------------------------------4-4-4-4-4-4-|

Chorus:

G|-----------------------------------------------------------------|
D|-------------------------6-4-3-----------3-4-4-4-4-4-3-4-6-6-6-6-|
A|-----------------4-4-4-4---------------6-------------------------|x2
E|-6-6-6-6-6-6-6-6---------------4-4-4-4---------------------------|

G|------------------|
D|------------------|
A|-----------8-6----|
E|-6-6-6-6-6-----9-6|

Verse:

G|-----------------------------------------------------------6---|
D|-------------------------------------3-3-4-4-6-----3---3-------|x2
A|---8-6-8-9-8-6-----8-6-8-9-8-6---4-4-------------6---6---6-----|
E|-6-------------9-6-------------6---------------4---------------|

G|-----------------------------------------------------------------|
D|-----------------------------------------------------------------|
A|---------------------------------1-1-1-1-1-1-1-1-4-4-4-4-4-4-4-4-|
E|-2-2-2-2-2-2-2-2-2-2-2-2-2-2-2-2---------------------------------|

G|---------------------------------------------------------------|
D|-------------------------------------3-3-4-4-6-----3---3-------|x2
A|---8-6-8-9-8-6-----8-6-8-9-8-6---4-4-------------6---6---6-4-3-|
E|-6-------------9-6-------------6---------------4---------------|

Pre-Chorus:

G|---------3---------------3---------------3-----------------------|
D|-3-4-3-6---6-4-3-3-4-3-6---6-4-3-3-4-3-6---6-4-3---6-4-3-4-3-4-3-|
A|-----------------------------------------------------------------|
E|-------------------------------------------------4---------------|

G|---------3---------------3---------------3-------------------|
D|-3-4-3-6---6-4-3-3-4-3-6---6-4-3-3-4-3-6---6-4-3-------------|
A|-------------------------------------------------------------|
E|-------------------------------------------------4-4-4-4-4-4-|

Chorus:

G|-----------------------------------------------------------------|
D|-------------------------6-4-3-----------3-4-4-4-4-4-3-4-6-6-6-6-|
A|-----------------4-4-4-4---------------6-------------------------|x2
E|-6-6-6-6-6-6-6-6---------------4-4-4-4---------------------------|

G|------------------|
D|------------------|
A|-----------8-6----|
E|-6-6-6-6-6-----9-6|

Bridge:

G|---------------------------------------------------------------|
D|-------------------------------------3-3-4-4-6-----3---3-------|x4
A|---8-6-8-9-8-6-----8-6-8-9-8-6---4-4-------------6---6---6-4-3-|
E|-6-------------9-6-------------6---------------4---------------|

G|-------------------------------------------|
D|-------------------------------------------|
A|---1--4--------1------------1--4-------1---|
E|-2-------4--2-----4---1--2-------4--2-----4|

G|-----------------------------------------------------------|
D|-----------------------------------------------------------|
A|-----------------1-1-1-1-4-4---------------------1-1-1-1---|
E|-2-2-2-2-2-2-2-2-------------4-4-2-2-2-2-2-2-2-2---------4-|

Chorus:

G|-----------------------------------------------------------------|
D|-------------------------6-4-3-----------3-4-4-4-4-4-3-4-6-6-6-6-|
A|-----------------4-4-4-4---------------6-------------------------|x2
E|-6-6-6-6-6-6-6-6---------------4-4-4-4---------------------------|

G|------------------|
D|------------------|
A|-----------8-6----|
E|-6-6-6-6-6-----9-6|





3. Exodus/Emigre

Intro:

G|----------------------------------------------------------------|
D|----------------------------------------------------------------|
A|-----------------4-4-4-4-6-6-6-6--------------------------------|
E|-4-4-4-4-4-4-4-4-----------------7-7-7-7-7-7-7-7-2-2-2-2-2-2-2-2|

G|----------------------------------------------------------------|
D|-------------------------------------------------4-4-4-4-4-4-4-4|
A|-----------------6-6-6-6-4-4-4-4--------------------------------|
E|-4-4-4-4-4-4-4-4-----------------7-7-7-7-7-7-7-7----------------|

G|----------------------------------------------------------------|
D|----------------------------------------------------------------|
A|-----------------4-4-4-4-6-6-6-6--------------------------------|
E|-4-4-4-4-4-4-4-4-----------------7-7-7-7-7-7-7-7-2-2-2-2-2-2-2-2|

G|---------------------------------------------------|
D|---------------------------------------------------|
A|-----------------6-6-6-6-4-4-4-4-------------------|
E|-4-4-4-4-4-4-4-4-----------------7-7-7-7-7-7-7-7-2-|

G|------------------------------------|
D|-------------------------------4-4-4|
A|-----4-6---------------6-4----------|x2
E|-4-4-----7-7-2-2-2-4-4-----7-7------|

Verse:

G|------------------------------|
D|------------------------------|
A|---------------------------4-4|x2
E|-2-4-4-4-2-4-2-4-2-4-4-4-2----|

G|---------4-3-------------4-3---|
D|-----6-------6-4-----6-------4-|
A|---6---6-----------6---6-------|
E|-4---------------4-------------|

G|-------------------------------|
D|-------------------------------|
A|---------------------------4-4-|
E|-2-4-4-4-2-4-2-4-2-4-4-4-2-----|

Pre-Chorus

G|-------------|
D|------6h8p6--|
A|-2--2-------9|
E|-------------|

Chorus:

G|------------------------------------|
D|-------------------------------4-4-4|
A|-----4-6---------------6-4----------|x2
E|-4-4-----7-7-2-2-2-4-4-----7-7------|

Verse:

G|------------------------------|
D|------------------------------|
A|---------------------------4-4|x2
E|-2-4-4-4-2-4-2-4-2-4-4-4-2----|

G|---------4-3-------------4-3---|
D|-----6-------6-4-----6-------4-|
A|---6---6-----------6---6-------|
E|-4---------------4-------------|

G|-------------------------------|
D|-------------------------------|
A|---------------------------4-4-|
E|-2-4-4-4-2-4-2-4-2-4-4-4-2-----|

Pre-Chorus

G|-------------|
D|------6h8p6--|
A|-2--2-------9|
E|-------------|

Chorus:

G|------------------------------------|
D|-------------------------------4-4-4|
A|-----4-6---------------6-4----------|x2
E|-4-4-----7-7-2-2-2-4-4-----7-7------|

Bridge:

G|-------------------------------------|
D|------6-6--------------6-6-----------|
A|--------------4-6--------------6-4---|x2
E|-4--4-----7-2-----4--4-----7-2-----4-|

G|----------------|
D|---6-6----------|
A|-----------4-6--|
E|-4-----7-2-----4|

G|----------------------------------------------------------------|
D|----------------------------------------------------------------|
A|-----------------4-4-4-4-6-6-6-6--------------------------------|
E|-4-4-4-4-4-4-4-4-----------------7-7-7-7-7-7-7-7-2-2-2-2-2-2-2-2|

G|----------------------------------------------------------------|
D|-------------------------------------------------4-4-4-4-4-4-4-4|
A|-----------------6-6-6-6-4-4-4-4--------------------------------|
E|-4-4-4-4-4-4-4-4-----------------7-7-7-7-7-7-7-7----------------|

G|----------------------------------------------------------------|
D|----------------------------------------------------------------|
A|-----------------4-4-4-4-6-6-6-6--------------------------------|
E|-4-4-4-4-4-4-4-4-----------------7-7-7-7-7-7-7-7-2-2-2-2-2-2-2-2|

G|---------------------------------------------------|
D|---------------------------------------------------|
A|-----------------6-6-6-6-4-4-4-4-------------------|
E|-4-4-4-4-4-4-4-4-----------------7-7-7-7-7-7-7-7-2-|

Chorus:

G|---------------------------------------------|
D|-------------6-4---4---------------6-4---4---|
A|-----4-6---------6---6-----6-4---------6---6-|x2
E|-4-4-----7-7-----------4-4-----7-7-----------|




4. The Project For A New American Century

Intro:

G|------------------------|
D|---------------------8-8|
A|-----------------8-8----|
E|-6-6-4-6-6-4-6-6--------|

G|------------------------------------------------------------|
D|------------------------------------------------------------|
A|---8-6---9-8-6-----8-6---9-8-6-8---8-6---9-8-6-------8h9-10-|x2
E|-6-----9-------9-6----9----------6-----9-------9-9-9--------|

Verse:

G|------------8-----------------------------11-10-8----8------------------8-|
D|-8-10-11-10---11-10-11-10-8----8-10-11-10---------11---11-10-8-10-11-10---|
A|----------------------------11--------------------------------------------|
E|--------------------------------------------------------------------------|

G|----------------------------|
D|-11-10-11-10-8--------------|
A|---------------11-----8h9-11|x2
E|------------------9-9-------|

Chorus:

G|--------------1-----------3---3-5-6-------------------|
D|----------4-----4-3-1---6---6-------6---------3-------|
A|--------4---4---------4-----------------6-4-3---6-4-3-|
E|-6-6--2-------------------------------4---------------|

G|---------6-5-------------1-----------3---3-5-6------------------|
D|-----8-------8-6-----4-----4-3-1---6---6-------6---------3------|
A|---8---8-----------4---4---------4-----------------6-4-3---6-4-3|
E|-6---------------2-------------------------------4--------------|

G|---------------|
D|-------------6-|
A|-----------6---|
E|-4-4-4-4-4-----|

Intro:

G|------------------------------------------------------------|
D|------------------------------------------------------------|
A|---8-6---9-8-6-----8-6---9-8-6-8---8-6---9-8-6-------8h9-10-|
E|-6-----9-------9-6----9----------6-----9-------9-9-9--------|

Verse:

G|------------8-----------------------------11-10-8----8------------------8-|
D|-8-10-11-10---11-10-11-10-8----8-10-11-10---------11---11-10-8-10-11-10---|
A|----------------------------11--------------------------------------------|
E|--------------------------------------------------------------------------|

G|----------------------------|
D|-11-10-11-10-8--------------|
A|---------------11-----8h9-11|x2
E|------------------9-9-------|

Chorus:

G|--------------1-----------3---3-5-6-------------------|
D|----------4-----4-3-1---6---6-------6---------3-------|
A|--------4---4---------4-----------------6-4-3---6-4-3-|
E|-6-6--2-------------------------------4---------------|

G|---------6-5-------------1-----------3---3-5-6------------------|
D|-----8-------8-6-----4-----4-3-1---6---6-------6---------3------|
A|---8---8-----------4---4---------4-----------------6-4-3---6-4-3|
E|-6---------------2-------------------------------4--------------|

Bridge:

G|---------------------------------------------------|
D|---------------------------------------------------|
A|---------------------4-4-6-6-6h8p6-----------------|
E|-4-4-4-4-4-4-4-4-2-2---------------6-6-6-6-6-6-6-6-|

G|---------------------------------------------------|
D|---------------------------------------------------|
A|---------------------4-4-6-6-6h8p6-----------------|
E|-4-4-4-4-4-4-4-4-2-2---------------6-6-6-6-4-4-4-4-|

G|---------------------------------------------------------------------------|
D|---------------------------------------------------------------------------|
A|---------------------4-4-6-6-6h8p6-------------------------6-6-6-6---------|
E|-4-4-4-4-4-4-4-4-2-2---------------6-6-6-6-4-4-4-4-2-2-2-2---------6-6-6-6-|

G|-----------------|---------------------|
D|-----------------|---------------------|
A|-----------------|---------6-----------|
E|-2-2-4-4-6-6-8-8-|-6-6--4-----4-4-4-2-1|

Chorus:

G|---------6-5-------------1-----------3---3-5-6------------------|
D|-----8-------8-6-----4-----4-3-1---6---6-------6---------3------|
A|---8---8-----------4---4---------4-----------------6-4-3---6-4-3|x2
E|-6---------------2-------------------------------4--------------|

G|---------------|
D|-------------6-|
A|-----------6---|
E|-4-4-4-4-4-----|

Outro:

G|---------------------------|
D|---------------------------|
A|---8-6---9-8-6-----8-6---9-|
E|-6-----9-------9-6----9----|





5. Hymn For The Dead

Intro:

G|---------------------------------------------------------------------------|
D|---------------------------------------------------------------------------|
A|-------------9-10-10-10-10-10-10-9-10-10-10-10-10-10-9-10-9-------------12-|x2
E|-7-7-7-7-7-7------------------------------------------------10-10-10-10----|

Verse:

G|-------------------------------------7-6-4---|
D|-------------------------5-5-5-5-----------7-|
A|-------5-----------5-------------5-5---------|x2
E|-7-7-7---7-5-7-7-7---7-5---------------------|


E|---------------------------------------------------------------|
D|---------------------------------------------------------------|
A|-----------------------5-----------5---------------------------|
E|-3-3-2-2-3-3-2-2-7-7-7---7-5-7-7-7---7-5-3-3-2-2-3-3-2-2-5--5--|

Chorus:

G|---------------------------------------------------------------------------|
D|---------------------------------------------------------------------------|
A|-------------9-10-10-10-10-10-10-9-10-10-10-10-10-10-9-10-9-------------12-|x2
E|-7-7-7-7-7-7------------------------------------------------10-10-10-10----|

Intro:

G|---------------------------------------------------------------------------|
D|---------------------------------------------------------------------------|
A|-------------9-10-10-10-10-10-10-9-10-10-10-10-10-10-9-10-9-------------12-|x2
E|-7-7-7-7-7-7------------------------------------------------10-10-10-10----|

Verse:

G|-------------------------------------7-6-4---|
D|-------------------------5-5-5-5-----------7-|
A|-------5-----------5-------------5-5---------|x2
E|-7-7-7---7-5-7-7-7---7-5---------------------|


E|---------------------------------------------------------------|
D|---------------------------------------------------------------|
A|-----------------------5-----------5---------------------------|
E|-3-3-2-2-3-3-2-2-7-7-7---7-5-7-7-7---7-5-3-3-2-2-3-3-2-2-5--5--|

Chorus:

G|---------------------------------------------------------------------------|
D|---------------------------------------------------------------------------|
A|-------------9-10-10-10-10-10-10-9-10-10-10-10-10-10-9-10-9-------------12-|x2
E|-7-7-7-7-7-7------------------------------------------------10-10-10-10----|

Bridge:

G|----------------------------------------------------------------|
D|-------------------------2---------------2----------------------|
A|-----------------2-5-4-5---5-4-5-2-5-4-5---5-4-5----------------|
E|-3-3-3-3-3-3-5-5---------------------------------3-3-3-3-5-5-5-5|

G|---------------------------------------------------------------------------|
D|---------------------------------------------------------------------------|
A|2-----5-----2-2-2-2---------5-5-5-5---------2-2-2-2---------5-5-5-5--------|
E|---5-----5----------3-3-3-3---------5-5-5-5---------3-3-3-3---------5-5-5-5|

G|----------------------------------|
D|------------------------4-5-7-7-7-|
A|2-2-2-2---------5-5-5-5-----------|x4
E|--------3-3-3-3-------------------|

Chorus/Outro:

G|---------------------------------------------------------------------------|
D|---------------------------------------------------------------------------|
A|-------------9-10-10-10-10-10-10-9-10-10-10-10-10-10-9-10-9-------------12-|x2
E|-7-7-7-7-7-7------------------------------------------------10-10-10-10----|

G|---------------------------------------------|
D|---9---9----9----9----12----12----11-12p11---|
A|---------10---10---10----10----12----------12|x2
E|-7---7---------------------------------------|

G|--------------------------------------------------------------------|
D|---9--9-9-------9--9-9-------12-------12-------11----12-11----11--9-|
A|----------10-10--------10-10----10-10----12-12----12-------12-12--x-|
E|-7----------------------------------------------------------------7-|






6. This Is The End (For You My Friend)

Verse:

G|-------------------------------------------------------------------3-|
D|---3-1---------------3-1-------3-1---------------3-1---------3-------|
A|-1-----3-1---------1-----3-1-1-----3-1---------1-----3-1-1-1---1-1---|
E|-----------1-1-1-2---------------------1-1-1-2-----------------------|

G|------------------------------------------------------------|
D|---3-1---------------3-1-------3-1---------------3-1-----1--|
A|-1-----3-1---------1-----3-1-1-----3-1---------1-----3-1----|
E|-----------1-1-1-2---------------------1-1-1-2--------------|

Pre-Chorus:

G|--------------|
D|--------------|
A|--------------|
E|-2-2-2-2-2-1--|

Chorus:

G|--------------------------------|
D|--------------------------------|
A|-4-4-4-4------------------------|x2
E|---------4-4-4-4-6-6-6-1-2-2-2-2|

G|-------------------------------------------------------------------------|
D|---------6-6-6-6-8-8-8-3-4-4-4-4---------6-6-6-6-------------------------|
A|-4-4-4-4-------------------------4-4-4-4---------------------------------|
E|-------------------------------------------------6-6-6-6-1-1-1-2-6-6-6-6-|

During Guitar Solo:

G|----------------|
D|----------------|
A|----------------|
E|6-6-6-6-1-1-1-2-|

Verse:

G|-------------------------------------------------------------------3-|
D|---3-1---------------3-1-------3-1---------------3-1---------3-1-1---|
A|-1-----3-1---------1-----3-1-1-----3-1---------1-----3-1-1-1---------|
E|-----------1-1-1-2---------------------1-1-1-2-----------------------|

G|------------------------------------------------------------|
D|---3-1---------------3-1-------3-1---------------3-1-----1--|
A|-1-----3-1---------1-----3-1-1-----3-1---------1-----3-1----|
E|-----------1-1-1-2---------------------1-1-1-2--------------|

Pre-Chorus:

G|--------------|
D|--------------|
A|--------------|
E|-2-2-2-2-2-1--|

Chorus:

G|--------------------------------|
D|--------------------------------|
A|-4-4-4-4------------------------|x2
E|---------4-4-4-4-6-6-6-1-2-2-2-2|

G|-------------------------------------------------|
D|---------6-6-6-6-8-8-8-3-4-4-4-4---------6-6-6-6-|
A|-4-4-4-4-------------------------4-4-4-4---------|
E|-------------------------------------------------|

Bridge:

G|----------------------------------------------------------------------------------------|
D|----------------------------------------------------------------------------------------|
A|-1-----4-----1-----4----1-1-1-1---------4-4-4-4---------1-1-1-1---------4-4-4-4---------|
E|----2-----1-----2-----1---------2-2-2-2---------1-1-1-1---------2-2-2-2---------1-1-1-1-|

G|----------------------------------------------------------------|-------|
D|--------4-4-4-4---------3-3-3-3---------4-4-4-4---------3-3-3-3-|-------|
A|1-1-1-1---------4-4-4-4---------1-1-1-1---------4-4-4-4---------|-------|
E|----------------------------------------------------------------|-2--1--|

Chorus

G|--------------------------------|
D|--------------------------------|
A|-4-4-4-4------------------------|x2
E|---------4-4-4-4-6-6-6-1-2-2-2-2|

G|-----------------------------------------------------------------|
D|---------6-6-6-6-8-8-8-3-4-4-4-4---------6-6-6-6-8-8-8-3-4-4-4-4-|
A|-4-4-4-4-------------------------4-4-4-4-------------------------|
E|-----------------------------------------------------------------|

G|----------------------------------------------------|
D|-------3h4-6-4-3-4---3-1-3-1---1-3-1---------3p4-6--|
A|-4-4-4-------------6---------4-------4-4-4-4-------4|
E|----------------------------------------------------|

Outro:

G|----------------------------|
D|---3-1---------------3-1----|
A|-1-----3-1---------1-----3-1|x2
E|-----------1-1-1-2----------|





7. One Trillion Dollars

Verse:
G|-----------------------------------------------------|
D|-----------------------------------------------------|
A|-6-6-5-3-1-6-8-10-5-3--------------------------------|
E------------------------------------------------------|

Chorus:
G|----------------------------|
D|----------------------------|
A|-----------6----------------|
E|-1--3-4--6---1--3-4--6-6-6-6|

Verse:
G|--------------------------------------------------------|
D|----------------5---5-5-5-3------------------5---5-5-5-3|
A|-6-6-6-8-10-8-3---3---------6-6-6-8-8-10-8-3---3--------|
E|--------------------------------------------------------|

Chorus:

G|--------------------------------------------------------------------------|
D|---------------------------------------------------8-8-8-8---------8-6-5--|
A|-8-8-8-8-8-8-10-10-11-11-11-10h11-13-13-13-6-6-6-6---------6-6-6-6-------6|
E|--------------------------------------------------------------------------|

G|---------------------------------------------------------------------------|
D|---------------------------------------------------------------------------|
A|-8-8-8-8-8-8-10-10-11-11-11-10h11-13-13-13-13-13-13-13-13-13-13-13-13-11-10|
E|---------------------------------------------------------------------------|

Bridge:

G|-----------------------------------------------------------------|
D|---------------------------------------------------------8-8-8-8-|
A|-----------------6-6-6-6-6-6-6-6-----------------6-6-6-6---------|
E|-4-4-4-4-4-4-4-4-----------------4-4-4-4-4-4-4-4-----------------|

G|----------------------------------------------------------------|
D|----------------------------------------------------------------|
A|-----------------6-6-6-6-6-6-6-6---------8-8-8-8-------------5--|
E|-4-4-4-4-4-4-4-4-----------------6-6-6-6---------6-6-6-6-6-8---6|

Verse:
G|---8-7-5-5-3-8-10-12-8-5|
D|------------------------|
A|-6----------------------|
E|------------------------|

Chorus/Outro
G|--------------------------------------------------------------------------|
D|---------------------------------------------------8-8-8-8---------8-6-5--|x3
A|-8-8-8-8-8-8-10-10-11-11-11-10h11-13-13-13-6-6-6-6---------6-6-6-6-------6|
E|--------------------------------------------------------------------------|

G|----------|
D|----------|
A|-8-11-13-6|
E|----------|




8. State Funeral

Intro:

G|---------------------------------6-6-6-6-11-11-11-11-18-18-18-18-|
D|-------------------------4-4-4-4---------------------------------|
A|-----------------4-4-4-4-----------------------------------------|
E|-2-2-2-2-2-2-2-2-------------------------------------------------|

G|-------------------------------------|
D|-------------------------------------|
A|-------------------------------------|
E|-1-1-1-1-1-1-1-1-.....very many times|

Verse:

G|---------------------------------------------------------|
D|-----------------------------------------------8-------6-|
A|-------6-6-4-6-------6-6-4-6-------6-6-4-6---8---8---6---|x2
E|-1-1-1---------1-1-1---------1-1-1---------6-------4-----|

Chorus:

G|-------------------------------------------------------------------|
D|-------6-----------------------------------6-----------------------|
A|-4-4-4---4-------6-------------------4-4-4---4-------6---8-8-8-6-4-|
E|-----------4-4-4---4-1-1-1-1-1-1-1-1-----------4-4-4---4-----------|

G|------------------------------------------------|
D|-------6----------------------------------------|
A|-4-4-4---4-------6-------------------4-4--------|
E|-----------4-4-4---4-1-1-1-1-1-1-1-1------4-4--1|

Pre-Verse:

G|------------------------------------|
D|-----------------3-3-3-3------------|
A|-------------------------1-1-1-1----|
E|-1-1-1-1-1-1-1-1-----------------4--|

Verse:

G|---------------------------------------------------------|
D|-----------------------------------------------8-------6-|
A|-------6-6-4-6-------6-6-4-6-------6-6-4-6---8---8---6---|
E|-1-1-1---------1-1-1---------1-1-1---------6-------4-----|

Chorus:

G|-------------------------------------------------------------------|
D|-------6-----------------------------------6-----------------------|
A|-4-4-4---4-------6-------------------4-4-4---4-------6---8-8-8-6-4-|
E|-----------4-4-4---4-1-1-1-1-1-1-1-1-----------4-4-4---4-----------|

G|------------------------------------------------|
D|-------6----------------------------------------|
A|-4-4-4---4-------6-------------------4-4--------|
E|-----------4-4-4---4-1-1-1-1-1-1-1-1------4-4--1|

Outro:

G|-----------------------------|
D|-----------------------------|
A|-------------------------6-6-|x5
E|-1-1-1-3-3-3-4-4-4-6-6-6-----|





9. Confessions Of An Economic Hitman

Intro:

G|------------------------------------------------|
D|------------------------------------------------|
A|-------4-4-4--------------4-4-4-3-3-3-3-3-3-3-3-|
E|-1-1-1-------1-1-1--1-1-1-----------------------|

G|-----------------------------------------------------------------|
D|-----------------------------------------------------------------|
A|---------4-4-4-4---------3-3-3-3---------3-3-3-3---------6-6-6-6-|
E|-1-1-1-1---------4-4-4-4---------1-1-1-1---------4-4-4-4---------|

Verse:

G|--------------------------------------|
D|--------------------------------------|
A|-------4-4-4--------------4-4-4-3-3-3-|
E|-1-1-1-------1-1-1--1-1-1-------------|

G|-----------------------------------------------------------------
D|-----------------------------------------------------------------
A|-----------------4-4-4-4-4-4-4-4-----------------4-4-4-4-6-6-6-6-
E|-1-1-1-1-1-1-1-1-----------------1-1-1-1-1-1-1-1-----------------

G|-------------------------------------------------------------------|
D|-------------------------------------------------------------------|
A|-----------------4-4-4-4-4-4-4-4-3-3-3-3-3-3-3-3-3-3-3-3-3-3-3-3-3-|
E|-1-1-1-1-1-1-1-1---------------------------------------------------|

Chorus:

G|-------------------------------------------------------------------|
D|-------------------------------------------------------------------|
A|---------4-4-4-4---------3-3-3-4p3---------4-4-4-4---------6-6-6-6-|x2
E|-1-1-1-1---------4-4-4-4-----------1-1-1-1---------4-4-4-4---------|

Intro:

G|-----------------------------------------------------------------|
D|-----------------------------------------------------------------|
A|---------4-4-4-4---------3-3-3-3---------3-3-3-3---------6-6-6-6-|
E|-1-1-1-1---------4-4-4-4---------1-1-1-1---------4-4-4-4---------|

Verse:

G|--------------------------------------|
D|--------------------------------------|
A|-------4-4-4--------------4-4-4-3-3-3-|
E|-1-1-1-------1-1-1--1-1-1-------------|

G|-------------------------------------------------------------------------|
D|-------------------------------------------------------------------------|
A|---------4-4-4-3---------3-3-3-3---------4-4-4-3---------6-6-6-6-6-6-6-6-|
E|-1-1-1-1---------4-4-4-4---------1-1-1-1---------4-4-4-4-----------------|

Chorus:

G|-------------------------------------------------------------------|
D|-------------------------------------------------------------------|
A|---------4-4-4-4---------3-3-3-4p3---------4-4-4-4---------6-6-6-6-|x2
E|-1-1-1-1---------4-4-4-4-----------1-1-1-1---------4-4-4-4---------|

Bridge:

half-speed
G|-----------------------------------------------------------------|
D|-----------------------------------------------------------------|
A|---------4-4-4-4---------3-3-3-3---------4-4-4-4---------6-6-6-6-|
E|-1-1-1-1---------4-4-4-4---------1-1-1-1---------4-4-4-4---------|

G|-----------------------3-5-5-5-5-----------------------3-8-8-8---8-|
D|-----------------6-6-6---------------------------6-6-6---------8---|
A|-------3-4-4-4-4-----------------------3-4-4-4-4-------------------|
E|-1-1-1---------------------------1-1-1-----------------------------|

Chorus:

G|-------------------------------------------------------------------|
D|-------------------------------------------------------------------|
A|---------4-4-4-4---------3-3-3-4p3---------4-4-4-4---------6-6-6-6-|
E|-1-1-1-1---------4-4-4-4-----------1-1-1-1---------4-4-4-4---------|

G|-----------------------------------------------------------------------------------|
D|-----------------------------------------------------------------------------6-6-3-|
A|---------4-4-4-4---------3-3-3-4p3---------4-4-4-4---------6-6-6-6-6-6-4-4-4-------|
E|-1-1-1-1---------4-4-4-4-----------1-1-1-1---------4-4-4-4-------------------------|






10. War Sucks, Let's Party!

Verse:

G|--------------------------|
D|4-7-4---------------------|
A|------4-7-4-------4-4-7-4-|x4
E|------------4-7-4---------|

Pre-Chorus:

G|-------------------------------------------|
D|-------7----------7----------7-------------|
A|-----7---7------7---7------7---7-----------|
E|-5-5--------5-5--------5-5-------7-7-7-7-7-|

Chorus:

G|------------------------------------------------------4-----|
D|--------------------------------7-7-7-7-6-4---7-7-7-7---7-6-|
A|-4-4-4-4-7-6-4---4-4-4-4-7-6-4--------------7---------------|x2
E|---------------7---------------7----------------------------|

G|---------------------------------------------|
D|-4-4-4-4-4-4-4-4-4-4-4-6-6-7-7-7-7-7-7-7-7---|
A|---------------------------------------------|
E|-------------------------------------------7-|

Verse:

G|--------------------------|
D|4-7-4---------------------|
A|------4-7-4-------4-4-7-4-|x4
E|------------4-7-4---------|

Pre-Chorus:

G|-------------------------------------------|
D|-------7----------7----------7-------------|
A|-----7---7------7---7------7---7-----------|
E|-5-5--------5-5--------5-5-------7-7-7-7-7-|

Chorus:

G|------------------------------------------------------4-----|
D|--------------------------------7-7-7-7-6-4---7-7-7-7---7-6-|
A|-4-4-4-4-7-6-4---4-4-4-4-7-6-4--------------7---------------|x2
E|---------------7---------------7----------------------------|

G|-------------------------------------------4-|
D|-4-4-4-4-4-4-4-4-4-4-4-6-6-7-7-7-7-7-7-7-7---|
A|---------------------------------------------|
E|---------------------------------------------|

Bridge/Outro:

G|-------------------------------------------------------------------|
D|-------------------------------------4-4-4-4-4-4-4-4-4-4-4-6-6-6-6-|
A|-4-4-4-4-4-4-4-4-4-4-4-4-4-4-4-2-2-2-------------------------------|x4
E|-------------------------------------------------------------------|





11. The W.T.O Kills Farmers

Verse:

G|-----6---8---6-8-10-8-6-5|
D|-3/8---8---8-------------|
A|-------------------------|
E|-------------------------|

G|-------------------------------------|
D|-------3-4-3h4-6-------3-4-3---3-----|
A|---4h6-------------4h6-------6---6-4-|x2
E|-6---------------6-------------------|

G|--------------------------------|
D|-4---6-4-3---3----3-------3-4-6-|
A|-----------6---6----6-4-6-------|
E|--------------------------------|

Chorus:

G|-----------------------------------------------------------|
D|-----------------------------------------------------------|
A|-----------------------------------------------------------|x2
E|-6-6-6-6-6-6--1-1-1-1-1-1-1--2-2-2-2-2-2-2-4-4-4-4-4-4-4-4-|

G|---------------------------------|
D|---3---3---4-3-----3---3---4-3-6-|
A|-----6---------6-----6-----------|
E|-6-------1-------2-------4-------|

G|------------------------------------------------------------|
D|-------------------------------4--3-4-6---------------------|
A|------------------------------------------------------3-6-3-|
E|-6-6-6-6-6-6-6-1-1-1-1-1-1-1-1----------6--1--2--4--4-------|

Verse:

G|-------------------------------------|
D|-------3-4-3h4-6-------3-4-3---3-----|
A|---4h6-------------4h6-------6---6-4-|x4
E|-6---------------6-------------------|

G|--------------------------------|
D|-4---6-4-3---3----3-------3-4-6-|
A|-----------6---6----6-4-6-------|
E|--------------------------------|

Chorus:

G|-----------------------------------------------------------|
D|-----------------------------------------------------------|
A|-----------------------------------------------------------|x2
E|-6-6-6-6-6-6--1-1-1-1-1-1-1--2-2-2-2-2-2-2-4-4-4-4-4-4-4-4-|

G|---------------------------------|
D|---3---3---4-3-----3---3---4-3-6-|
A|-----6---------6-----6-----------|
E|-6-------1-------2-------4-------|

G|----------------------------------------|
D|-------------------------------4--3-4-6-|
A|----------------------------------------|
E|-6-6-6-6-6-6-6-1-1-1-1-1-1-1-1----------|

Bridge/Outro:

G|--------------------------|
D|--------------------------|
A|--------------------------|
E|-6--1--6--2-2-2-2-1-1-1-1-|


G|---------------------------------|
D|---3---3---4-3-----3---3---4-3-6-|
A|-----6---------6-----6-----------|x4
E|-6-------1-------2-------4-------|

G|----------------------------------------------------------------|
D|----------------------------------------------------------------|
A|-----------------------------------------8-8-8-8-9-9-9-9--------|x5
E|-6-6-6-6-1-1-1-1-2-2-2-2-4-4-4-4-6-6-6-6-----------------9-9-9-9|

G|--------6---6--|
D|----6/8---8---8|
A|-8-------------|
E|---------------|





12. Cities Burn
                   -----------------------------
                   |YOU MUST TUNE 1/2 STEP DOWN|
                   -----------------------------

Intro:

starts with Drums, no bass
guitar comes in, stills no bass
then the bass comes in

Gb|-------------------------------------|
Db|-------3-3-3-3-3-3-3-3-3-5-3-2-3-2---|
Ab|-3--5------------------------------5-|
Eb|-------------------------------------|

Verse:

Gb|---------------------------------------5-|
Db|-----5-----3-----2-----0-----0---0-2-0---|
Ab|-3-3---3-3---3-3---3-3-----3---3---------|
Eb|-------------------------1---------------|

Gb|---------------------------------------|
Db|-----5-----3-----2-----0-----0---0-2-0-|
Ab|-3-3---3-3---3-3---3-3-----3---3-------|
Eb|-------------------------1-------------|

Gb|---------------------------------------5-|
Db|-----5-----3-----2-----0-----0---0-2-0---|
Ab|-3-3---3-3---3-3---3-3-----3---3---------|
Eb|-------------------------1---------------|

Gb|---------------------------------------|
Db|-----5-----3-----2-----0-----0---0-2-0-|
Ab|-3-3---3-3---3-3---3-3-----3---3-------|
Eb|-------------------------1-------------|

Bridge:

Gb|----------------------------------------------|
Db|-------3--------3-3-3-3-3-3-3-3-3-5-3-2-3-2---|
Ab|-3--5-----3--5------------------------------5-|
Eb|----------------------------------------------|

Verse:

Gb|------------------|
Db|------0---0-2-0-5-|
Ab|----3---3---------|
Eb|--1---------------|

Gb|---------------------------------------|
Db|-----5-----3-----2-----0-----0---0-2-0-|
Ab|-3-3---3-3---3-3---3-3-----3---3-------|
Eb|-------------------------1-------------|

Gb|---------------------------------------5-|
Db|-----5-----3-----2-----0-----0---0-2-0---|
Ab|-3-3---3-3---3-3---3-3-----3---3---------|
Eb|-------------------------1---------------|

Gb|---------------------------------------|
Db|-----5-----3-----2-----0-----0---0-2-0-|
Ab|-3-3---3-3---3-3---3-3-----3---3-------|
Eb|-------------------------1-------------|

Pre-Chorus:

Gb|------------------------------------|
Db|---------------3------------------5-|
Ab|-------------3-----------8-8-8------|
Eb|-5-5-3-3-1-1-----5-5-3-3-------5----|

Chorus:

Gb|---------------------------------------------|
Db|-------3-------3-3-3-3-3-3-3-3-3-5-3-2-3-2---|
Ab|-3--5-----3--5-----------------------------5-|
Eb|---------------------------------------------|

Verse:

Gb|---------------------------------------5-|
Db|-----5-----3-----2-----0-----0---0-2-0---|
Ab|-3-3---3-3---3-3---3-3-----3---3---------|
Eb|-------------------------1---------------|

Gb|---------------------------------------|
Db|-----5-----3-----2-----0-----0---0-2-0-|
Ab|-3-3---3-3---3-3---3-3-----3---3-------|
Eb|-------------------------1-------------|

Gb|---------------------------------------5-|
Db|-----5-----3-----2-----0-----0---0-2-0---|
Ab|-3-3---3-3---3-3---3-3-----3---3---------|
Eb|-------------------------1---------------|

Gb|---------------------------------------|
Db|-----5-----3-----2-----0-----0---0-2-0-|
Ab|-3-3---3-3---3-3---3-3-----3---3-------|
Eb|-------------------------1-------------|

Pre-Chorus:

Gb|------------------------------------|
Db|---------------3------------------5-|
Ab|-------------3-----------8-8-8------|
Eb|-5-5-3-3-1-1-----5-5-3-3-------5----|

Bridge:

Gb|-------------------------------------------------------------------------------------|
Db|-------------------------2-3-3-3-3-3-3-3-2---2---------5-5-5-5-3-3-3-3-5-3-2-3-2---2-|
Ab|-3-3-3-3-3-3-3-3-3-3-5-5-------------------5-------------------------------------5---|
Eb|-----------------------------------------------5-5-5-5-------------------------------|

Gb|-------------------------------------------------------------------------------------|
Db|-------------------------2-3-3-3-3-3-3-3-2---2---------5-5-5-5-3-3-3-3-3-3-3-3-5-5---|
Ab|-3-3-3-3-3-3-3-3-3-3-5-5-------------------5---------------------------------------3-|
Eb|-----------------------------------------------5-5-5-5-------------------------------|

Gb|-----------------------------------------|
Db|----------------3--------3-3-3-3-3-3-3-3-|
Ab|-no-bass--3--5-----3--5------------------|
Eb|-----------------------------------------|

Outro:

Gb|-------5------------------------5-|
Db|---3-5-----0-2-3-2----0---0-2-0---|
Ab|-3------------------3---3---------|x4
Eb|------------------1---------------|




13. Depleted Uranium Is War Crime

Verse:

G|---------------------------------------9p8p6---11p9p8-|
D|-------------------------------------7-------9--------|x3
A|-------7-6---------------------7-6--------------------|
E|-9-9-9-----9-5-5-5-7-7-7-9-9-9-----9------------------|

Chorus:

G|---------------------------------------------|
D|---------------9-9---7-----------------------|
A|-----6-6-4-4-------8-------------------------|
E|-4-4---------7---------9-9-7-9-9-7-9-9-7-9-7-|

G|-----------------------------|
D|---------------9-9---7-------|
A|-----6-6-4-4-------8---------|
E|-4-4---------7---------9-9-9-|

Verse:

G|---------------------------------------9p8p6---11p9p8-|
D|-------------------------------------7-------9--------|x2
A|-------7-6---------------------7-6--------------------|
E|-9-9-9-----9-5-5-5-7-7-7-9-9-9-----9------------------|

Chorus:

G|---------------------------------------------|
D|---------------9-9---7-----------------------|
A|-----6-6-4-4-------8-------------------------|
E|-4-4---------7---------9-9-7-9-9-7-9-9-7-9-7-|

G|-------------------------|
D|---------------9-9---7---|
A|-----6-6-4-4-------8-----|
E|-4-4---------7---------9-|

Bridge:

G|---------------------------------------------------------------|
D|---------------------------------------------------------------|
A|-----------7-7-7-----------------------------------------------|x6
E|-9-9-9-9-9-------5-5-5-5-7-7-7-4-4-4-4-4-4-4-4-5-5-5-5-7-7-7-7-|

guitar solo starts during 2. time
G|---------------------------------------9p8p6---11p9p8-|
D|-------------------------------------7-------9--------|x3
A|-------7-6---------------------7-6--------------------|
E|-9-9-9-----9-5-5-5-7-7-7-9-9-9-----9------------------|

Chorus:

G|---------------------------------------------|
D|---------------9-9---7-----------------------|
A|-----6-6-4-4-------8-------------------------|x2
E|-4-4---------7---------9-9-7-9-9-7-9-9-7-9-7-|

G|-----------------------------|
D|---------------9-9---7-------|
A|-----6-6-4-4-------8---------|
E|-4-4---------7---------9-9-9-|

Bridge:

G|-6---------------------------------|
D|---6---9-7-7h9p7-6-7-6---6---------|
A|-----9-----------------9---9-7-9-6-|x5
E|-----------------------------------|

Outro:

G|-----------------------------|
D|-----------------------------|
A|-4-----2---2-----------------|x4
E|---4-2---5---4-5-4-2-4-2-0-2-|

G|---------------------------------6---------------------------------6-|
D|-----------------------------------6---9-7-7h9p7-6-7-6---6-----------|
A|-4-----2-----------------------------9-----------------9---9-7-9-6---|
E|---4-2---5-5-4-2-4-2-4-2-4-2-0-2-------------------------------------|



That's it! please send comments and/or requests to jibjab@got.net
Suggest correction
Creating personal tab
Creating personal tab
You can edit any tab online and save it as your Personal.

You can edit, replace or remove any tab part or add personal notes – all changes will be seen only by you.

Personal tabs can be accessed anytime from any device, even offline.
Learn more »
comments
print report bad tab
4 comments total. Showing first comments.
0 reply
ratmblink123 70 Sep 30, 2007 10:42 AM

nice tab man.

0 reply
BlinkMe-Rancid 297 Jan 19, 2008 09:06 PM

awesome work

-1 reply
cooper665 40 Jul 10, 2009 12:07 PM

yeah really well copied nd pasted

guest
You may want to rate the tab now too:
select rating
Wanna post a correction for this tab? Suggest correction