Oops, an error
Loading. Please wait.

Good N Ready tab

version 1
version 1

Whole song

Interactive

5,003 views 9 this week
4 commentsread comments
1 2 3 4 5
x 5
add to favorites
×
Save as Personal and add changes to this tab that will be seen only by you. Learn more ›
×
You can save this tab as Personal to edit and correct it or add notes. All changes will be seen only by you. Learn more »
launch autoscroll
font size
0
reset
how to read this tab
guitar tuner
edit
Autoscroll
slow
fast
+/-
esc
set tempo
stop
Author
Difficulty
- Anti-Flag - Good 'N' Ready (From their upcoming album called "The Bright Lights Of America")
- Tabbed by: Pacu, bassis from a brazilian punk rock band called PunkAss.
- This is a new song that will be in their upcoming album..Its easy to play, just
listen to the song and enjoy it.

______


Intro
e|-------------------|
B|-------------------|
G|-4-4-4-4-4-4-4-4-2-|
D|-4-4-4-4-4-4-4-4-2-|
A|-2-2-2-2-2-2-2-2-0-|
E|-------------------|

First Chorus
e|---------------------------------------------------------------------|
B|-----------------------------------8-8-8-8-8-8-8-8-7-7-7-7-8-8-10-10-|
G|-4-4-4-4-4-4-4-4-2-4-4-4-4-4-4-4-4-7-7-7-7-7-7-7-7-6-6-6-6-7-7--9--9-|
D|-4-4-4-4-4-4-4-4-2-4-4-4-4-4-4-4-4-5-5-5-5-5-5-5-5-4-4-4-4-5-5--7--7-|
A|-2-2-2-2-2-2-2-2-0-2-2-2-2-2-2-2-2-----------------------------------|
E|---------------------------------------------------------------------|

e|------------------------------------|-----|
B|------------------------------------|-----|
G|-44444444244444444---------------22-|--4--|
D|-44444444244444444-5555555544445522-|--4--|
A|-22222222022222222-5555555544445500-|--2--|
E|-------------------33333333222233---|-----|

Verse Guitar I [2x] [PM]
e|-----------------|--------|-----------------|
B|-----------------|--------|-----------------|
G|-----------------|--------|-----------------|
D|---------4-------|--[3x]--|-----------------|
A|-----5-7---7-5---|--------|-7-5---5---------|
E|-5-7-----------7-|--------|-----7---7-5-3-5-|

e|-----------------|--------|---------------------------------|
B|-----------------|--------|---------------------------------|
G|-----------------|--------|---------------------------------|
D|-5-4-------------|--[2x]--|---------2---2---5-4-2---2-------|
A|-----7-5-7-5---5-|--------|-----3-5---5---5-------5---5-4-2-|
E|-------------7---|--------|-3-5-----------------------------|

Verse Guitar II [2x]
e|---------------------------------------------------------------------|
B|-----------------------------------8-8-8-8-8-8-8-8-7-7-7-7-8-8-10-10-|
G|-4-4-4-4-4-4-4-4-2-4-4-4-4-4-4-4-4-7-7-7-7-7-7-7-7-6-6-6-6-7-7--9--9-|
D|-4-4-4-4-4-4-4-4-2-4-4-4-4-4-4-4-4-5-5-5-5-5-5-5-5-4-4-4-4-5-5--7--7-|
A|-2-2-2-2-2-2-2-2-0-2-2-2-2-2-2-2-2-----------------------------------|
E|---------------------------------------------------------------------|

Pré-Chorus 
e|-------------------------|
B|-------------------------|
G|-------------------------|
D|-44~--44~-44-44-44-44-44-|
A|-44~--44~-44-44-44-44-44-|
E|-22~--22~-22-22-22-22-22-|

Chorus [2x]
e|------------------------------------|
B|------------------------------------|
G|-44444444244444444---------------22-|
D|-44444444244444444-5555555544445522-|
A|-22222222022222222-5555555544445500-|
E|-------------------33333333222233---|

Verse [2x]
e|-------------------------------------------------------------------------|
B|---------------------------------------8-8-8-8-8-8-8-8-7-7-7-7-8-8-10-10-|
G|-4-4-4-4-4-4-44-66-7-4-4-4-4-4-4-77646-7-7-7-7-7-7-7-7-6-6-6-6-7-7--9--9-|
D|-4-4-4-4-4-4-xx-xx-x-4-4-4-4-4-4-xxxxx-5-5-5-5-5-5-5-5-4-4-4-4-5-5--7--7-|
A|-2-2-2-2-2-2-22\44\5-2-2-2-2-2-2-55424-----------------------------------|
E|-------------------------------------------------------------------------|

Pré-Chorus 
Chorus [2x]

Bridge [Acoustic Guitar]
e|-----------3-33-3-33-2-22-2-22-----------|--------|
B|-----------3-33-3-33-3-33-3-33-2-22-2-22-|--------|
G|-4-44-4-44-----------2-22-2-22-2-22-2-22-|--------|
D|-4-44-4-44-----------0-00-0-00-2-22-2-22-|--[2x]--|
A|-2-22-2-22-2-22-2-22-----------0-00-0-00-|--------|
E|-----------3-33-3-33---------------------|--------|

              [3x]                         [After 3th time]
e|-----------------------------|----------------------------------------|
B|-----------------------------|----------------------------------------|
G|-2\4-44-2\4-7-2\4-44-2\4-7-6-|-2\4-44444-2\4-44444-2\4-44-6666-7777-9-|
D|-----------------------------|----------------------------------------|
A|-----------------------------|----------------------------------------|
E|-----------------------------|----------------------------------------|

“you’ll get yours when you’re...”
  [03:21]
e|---------------------------|
B|---------------------------|
G|-4-4-4-4-4-4-4-4-4-4-4-4-4-|
D|-4-4-4-4-4-4-4-4-4-4-4-4-4-|
A|-2-2-2-2-2-2-2-2-2-2-2-2-2-|
E|---------------------------|

Chorus [2x]

Ending
e|-----------------|
B|-----------------|
G|-44~--44~--44~-4-|
D|-44~--44~--44~-4-|
A|-22~--22~--22~-2-|
E|-----------------|
Suggest correction
Creating personal tab
Creating personal tab
You can edit any tab online and save it as your Personal.

You can edit, replace or remove any tab part or add personal notes – all changes will be seen only by you.

Personal tabs can be accessed anytime from any device, even offline.
Learn more »
comments
print report bad tab
4 comments total. Showing first comments.
+3 reply
raminile 359 Apr 13, 2008 02:47 AM

good tab, but i think your guitar is tuned a half step down cuz the song is in C

+3 reply
Lanody 10 Apr 18, 2008 01:29 AM

thats right... there is a small mistake :) i dont figured it out if there are more mistakes... :/ but there are others, the intro is not complete..
e|-------------------|----|-------------------------------------
B|-------------------|----|-------------------------------------
G|-5-5-5-5-5-5-5-5-3-|----|-------------------------------------
D|-5-5-5-5-5-5-5-5-3-|(3x)|-6-6-6-6-6-6-6-xx-5-5-5-5--6-6--7-7--
A|-3-3-3-3-3-3-3-3-1-|----|-6-6-6-6-6-6-6-xx-5-5-5-5--6-6--7-7--
E|-------------------|----|-4-4-4-4-4-4-4-xx-3-3-3-3--4-4--5-5--

+2 reply
Lanody 10 Apr 18, 2008 01:42 AM

damn... that was my mistake ^^" i've wrote the wrong tab at the end..
wrong right
-7-7-- -8-8-
-7-7-- -8-8-
-5-5-- -6-6-

guest
You may want to rate the tab now too:
select rating
Wanna post a correction for this tab? Suggest correction