Oops, an error
Loading. Please wait.

Got The Numbers Tab

version 2
version 2

Whole song

Interactive

407 views 1 this week
1 commentread comment
1 2 3 4 5
please rate
add to favorites
launch autoscroll
font size
0
reset
how to read this tab
guitar tuner
Autoscroll
slow
fast
+/-
esc
set tempo
stop
Help us to improve Ultimate-Guitar.com Take our survey!
×
Difficulty
Tuning
intermediate
E A D G B E
-------------------------------------------------------------------------------
			     Got The Numbers - Anti-Flag
-------------------------------------------------------------------------------
Tabbed by: Cockroach
Email: punkrockroach@yahoo.com

Tuning: Half-step down=eb Bb Gb Db Ab Eb
	Normal Anti-Flag Tuning

THIS IS EXACTLY HOW JUSTIN SANE PLAYS THE SONG


INTRO Pt. 1:

eb|----------------0-------------------------------------------|
Bb|----------------2-------------------------------------------|
Gb|-2~~~~~--2-2~~~~~---2---5---5*-5*-5*-5*-5*-2~~~~~-----------|
Db|-2~~~~~--2-2~~~~~-------5---5*-5*-5*-5*-5*-2~~~~~-----------|
Ab|-0~~~~~--0-0~~~~~-------3---3*-3*-3*-3*-3*-0~~~~~->>>>>>>>>-|
Eb|-------------------------------------------------->>>>>>>>>-|

*Pick-up Switching Technique---(Requires two pick-ups each with an individual            
 *volume knob.) Turn one volume knob to 11, while the other is at 0. Strike *and hold 
while toggling pick-up switch respective to the rythm.

Intro Pt. 2:

eb|---------------------------------|
Bb|----13-----------13--------------|
Gb|-------14-----------14-----------|
Db|----------14-----------14--------|
Ab|-12----------15~-----------------|
Eb|---------------------------------| Play 4 times.


VERSE:
	You push and push...
eb|----------------------------------------|
Bb|--2-2-2-2-2-2-2-2-----------------------|
Gb|--2-2-2-2-2-2-2-2----5-5-5-5-5-5-5-5----|
Db|--2-2-2-2-2-2-2-2----5-5-5-5-5-5-5-5----|
Ab|--0-0-0-0-0-0-0-0----3-3-3-3-3-3-3-3----|
Eb|----------------------------------------| Play 4 times.
     P.M.----------------------------------|

PRE-CHORUS:
	We don't need more time...
eb|--------------------------------------------------------------------|
Bb|--------------------------------------------------------------------|
Gb|--------------------------------------------------------------------|
Db|--3-3-3-3-3-3-3-3-3-3-3-3-3-3-3-3-5-5-5-5-5-5-5-5-5*-5-5-5-5-5-5-5--|
Ab|--3-3-3-3-3-3-3-3-3-3-3-3-3-3-3-3-5-5-5-5-5-5-5-5-5*-5-5-5-5-5-5-5--|
Eb|--1-1-1-1-1-1-1-1-1-1-1-1-1-1-1-1-3-3-3-3-3-3-3-3-3*-3-3-3-3-3-3-3--|
	*3rd time played stop at "*"


Chorus Pt. 1:
	We don't need your...
eb|-----------------------------------------------------------|
Bb|-----------------------------------------------------------|
Gb|--5--5-5-7--7-7-------------5--5-5-7--7-7------------------|
Db|--5--5-5-7--7-7-7--7--5--3--5--5-5-7--7-7-7-7-7-7-7-7-7-7--|
Ab|--3--3-3-5--5-5-7--7--5--3--3--3-3-5--5-5-7-7-7-7-7-7-7-7--|
Eb|----------------5--5--3--1----------------5-5-5-5-5-5-5-5--|

eb|------------------------------------------------------------|
Bb|------------------------------------------------------------|
Gb|--5--5-5-7--7-7-------------5--5-5-7--7-7-------------------|
Db|--5--5-5-7--7-7-7--7--5--3--5--5-5-7--7-7-7*-7-7-7-7-7-7-7--|
Ab|--3--3-3-5--5-5-7--7--5--3--3--3-3-5--5-5-7*-7-7-7-7-7-7-7--|
Eb|----------------5--5--3--1----------------5*-5-5-5-5-5-5-5--|
	*Only Continue here on the 1st time through the 3rd Chorus (See Order).


CHORUS Pt. 2:
	Got the numbers...
eb|-----------------------------------|
Bb|-----------------------------------|
Gb|--5-5-5-5-5-5-5-5-2-2-2-2-2-2-2-2--|
Db|--5-5-5-5-5-5-5-5-2-2-2-2-2-2-2-2--|
Ab|--3-3-3-3-3-3-3-3-0-0-0-0-0-0-0-0--|
Eb|-----------------------------------| Play 4 times.


Bridge Pt. 1:

eb|-----------------|
Bb|-----------------|
Gb|-----------------|
Db|--2~~~~~~~~~~~~--|
Ab|--2~~~~~~~~~~~~--|
Eb|--0~~~~~~~~~~~~--|


Bridge Pt. 2:

eb|---------------------------------------------------|
Bb|--------13-13-------------------13-13--------------|
Gb|--------------14-14-------------------14-14--------|
Db|--------------------14-14-------------------14-14--|
Ab|--12-12-------------------15-15--------------------|
Eb|---------------------------------------------------| Play 4 Times.
	Palm Muting in beginning, but gradually release.


OUTRO:

eb|---------------------------------|
Bb|----13---------------------------|
Gb|-------14----5-5--------2~~~~~---|
Db|----------14-5-5--5-5---2~~~~~---|
Ab|-12----------3-3--5-5---0~~~~~---|
Eb|------------------3-3------------|
		^ ^  ^ ^


SONG ORDER

Intro Pt. 1
Intro Pt. 2  x4
Verse        x4
Pre-Chorus
Chorus Pt. 1
Chorus Pt. 2 x4
Intro Pt. 2  x4
Verse        x4
Pre-Chorus
Chorus Pt. 1
Chorus Pt. 2 x4
Intro Pt. 1
Bridge Pt. 1
Bridge Pt. 2 x4
Pre-Chorus
Chorus Pt. 1 x2
Chorus Pt. 2 x4
Intro Pt. 2  x7
Outro

| ^  Steccato
| >  pick slide
| /  slide up
|   slide down
| h  hammer-on
| p  pull-off
| ~  vibrato
| +  harmonic
| x  Mute note
Suggest correction
What's this?
You can suggest a correction to this tab. Community and Mods will review your correction and vote to approve or reject it.
comments
We did not receive enough feedback on this tab! Please rate:
print report bad tab
1 2 3 4 5
1 comment total.
0 reply
SITHLORD2010 212 wrote on June 12 2014, 04:03 pm

the only problem i see with this tab is the into/solo i play it like this iv even played it with the song..an iv played in front of people that say its spot on? idk tell me what you think

e---7-4-----7-4---
B-------4-------7-
G---------4-------
D-6---------------
A-----------------
E-----------------

guest
You may want to rate the tab now too:
select rating
Please do not post tabs as comments. Select "correction" instead!