Oops, an error
Loading. Please wait.

Id Tell You But tab

version 3
version 3

Whole song

Interactive

Video

3,676 views 3 this week
5 commentsread comments
1 2 3 4 5
x 5
add to favorites
×
Save as Personal and add changes to this tab that will be seen only by you. Learn more ›
×
You can save this tab as Personal to edit and correct it or add notes. All changes will be seen only by you. Learn more »
launch autoscroll
font size
0
reset
how to read this tab
guitar tuner
edit
Autoscroll
slow
fast
+/-
esc
set tempo
stop
Author
-------------------------------------------------------------------------------
                             I'd Tell You But... - Anti-Flag
-------------------------------------------------------------------------------

| /  slide up
| \  slide down
| h  hammer-on
| p  pull-off
| ~  vibrato
| +  harmonic
| x  Mute note
| *  Pinch Harmonic
| b Bent note to

Tuning: EADGBE

Intro:

Main Riff:

Guitar 1-

e|-----------------------------------------------------------------------------|
B|-7-7-0-0-7-7-0-0-7-7-0-0-----9-8---------------------------------------------|
G|---------------------------11------------------------------------------------|
D|-----------------------------------------------------------------------------|
A|-----------------------------------------------------------------------------|
E|-----------------------------------------------------------------------------|

then:

Guitar 1-

e|-----------------------------------------------------------------------------|
B|-----------------------------------------------------------------------------|
G|-------9-8-----------9-8-----------------------------------------------------|
D|-11-11-----11-11-11----------------------------------------------------------|
A|-----------------------------------------------------------------------------|
E|-----------------------------------------------------------------------------|

Guitar 2-

e|---------------------------------------------------------------------------|
B|---------------------------------------------------------------------------|
G|-6---------------------4---------------------------------------------------|
D|-6------2-------7------4---------------------------------------------------|
A|-4------2-------7------2---------------------------------------------------|
E|--------0-------5----------------------------------------------------------|

do this x2 then-

Guitar 1-

e|-----------------------------------------------------------------------------|
B|-----------------------------------------------------------------------------|
G|-------9-8-----------9-8-9---------------------------------------------------|
D|-11-11-----11-11-11----------------------------------------------------------|
A|-----------------------------------------------------------------------------|
E|-----------------------------------------------------------------------------|

Guitar 2-

e|---------------------------------------------------------------------------|
B|---------------------------------------------------------------------------|
G|-6---------------------4---------------------------------------------------|
D|-6------2-------7------4---------------------------------------------------|
A|-4------2-------7------2---------------------------------------------------|
E|--------0-------5----------------------------------------------------------|

then:

Guitar 1-

e|-----------------------------------------------------------------------------|
B|-7-7-0-0-7-7-0-0-7-7-0-0-----9-8---------------------------------------------|
G|---------------------------11------------------------------------------------|
D|-----------------------------------------------------------------------------|
A|-----------------------------------------------------------------------------|
E|-----------------------------------------------------------------------------|

do this twice then into the verse ( When you see (x17) in the verse, it means play that 
17 times, not just the note)

Verse-

Guitar 1-

"Your invasion was a crime..."
e|---------------------------------------------------------------------------|
B|---------------------------------------------------------------------------|
G|-6-6x--------------------------------------4x-4-4x-4-4x-4-4x-4-------------|
D|-6-6x------2x-2-2x-2-2x-2-2x-2--7-7x------4x-4-4x-4-4x-4-4x-4--------------|
A|-4-4x(x17)--2x-2-2x-2-2x-2-2x-2--7-7x------2x-2-2x-2-2x-2-2x-2-------------|
E|------------0x-0-0x-0-0x-0-0x-0--5-5x(x17)---------------------------------|

do this twice then:

Prechorus-

Guitar 1-

"I'd tell you all these things but I can't speak because..."
e|-----------------------------------------------------------------------------|
B|-----------------------------------------------------------------------------|
G|-----------------------------------------------------------------------------|
D|-7-7-7-7-7-7-7-11--9-9-9-9-9----2-1------------------------------------------|
A|-7-7-7-7-7-7-7-11--9-9-9-9-9--4----------------------------------------------|
E|-5-5-5-5-5-5-5--9--7-7-7-7-7-------------------------------------------------|

Chorus-

Guitar 1-
"I'm dead! I'm dead!..."
e|------------------------------------------------------------------------------|
B|------------------------------------------------------------------------------|
G|-6-------------------4--------------------------------------------------------|
D|-6------2------7-----4---2-1--------------------------------------------------|
A|-4(x4)---2------7-----2-4-----------------------------------------------------|
E|--------0(x4)---5(x4)---------------------------------------------------------|

Guitar 2-

e|------------------------------------------------------------------------------|
B|------------------------------------------------------------------------------|
G|-6---------------------4------------------------------------------------------|
D|-6------2-------7------4------------------------------------------------------|
A|-4(x4)---2-------7------2(x4)-------------------------------------------------|
E|---------0(x4)---5(x4)--------------------------------------------------------|

do this twice-

Postchorus-

Guitar 1-

"whoa... whoa..."
e|----------------------------------------------------------|
B|----------------------------------------------------------|
G|----------------------------------------------------------|
D|-xx-11--xx-11--xx-11--xx-11-xx-14-xx-14-xx-14-xx-14-------|
A|-xx--x--xx--x--xx--x--xx--x--xx-x--xx--x-xx--x-xx--x------|
E|-xx--9--xx--9--xx--9--xx--9--xx-12-xx-12-xx-12-xx-12------|

e|----------------------------------|
B|----------------------------------|
G|-xx-14-xx-14-xx-14-xx-14--13------|
D|-xx--x-xx-x--xx--x-xx--x---x------|
A|-xx-12-xx-12-xx-12-xx-12--11------|
E|----------------------------------|

(drums)

Solo! (When I put two notes together (like 99) it means play the two notes 9 and 9 seperately but fast):

Guitar 1-

e|--------99-------99-------99--------99-----------|
B|--------99-------99-------99--------99-----------|
G|-11b13----11b13----11b13----11b13-----11b13*-----|
D|-------------------------------------------------|
A|-------------------------------------------------|
E|-------------------------------------------------|

e|----------------------------|
B|-9----99----99----99--------|
G|-9----99----99----99--------|
D|---11----11----11----11-----|
A|----------------------------|
E|----------------------------|

e|-----------------------------------------------------|
B|------9-------9------9------9------------------------|
G|------9-------9------9------9--9h11b13-9-11b13-9-----|
D|-9h11---9h11---9h11---9h11---------------------------|
A|-----------------------------------------------------|
E|-----------------------------------------------------|

e|-12-12---------------12-12---------------------|
B|-------9-9-10-10-----------9-9-10-10-12-12-----|
G|-----------------9-9---------------------------|
D|-----------------------------------------------|
A|-----------------------------------------------|
E|-----------------------------------------------|

e|-0-0-12b14-0-0-12b-14-0-0-12b14-0-0-12b14--------|
B|-------------------------------------------------|
G|-------------------------------------------------|
D|-------------------------------------------------|
A|-------------------------------------------------|
E|-------------------------------------------------|

e|-----------------------------------------------|
B|-12-12-10-10-9-9------10-10-9-9----------------|
G|------------------9-9------------11-11-9-9-----|
D|-----------------------------------------------|
A|-----------------------------------------------|
E|-----------------------------------------------|

e|-----------------------------------------------|
B|-----------------------------------------------|
G|-11-9-8-9--------------------------------------|
D|----------11-----------------------------------|
A|-----------------------------------------------|
E|-----------------------------------------------|

Guitar 2-

e|---------------------------------------------------------------------------|
B|---------------------------------------------------------------------------|
G|-6---------------------4---------------------------------------------------|
D|-6------2-------7------4---------------------------------------------------|
A|-4------2-------7------2---------------------------------------------------|
E|--------0-------5----------------------------------------------------------|

Bridge:

Guitar 1-

e|--------------------------------------------------------|
B|-2s4-5-2----------5--4--2---------4-5-2-----5-4-5--7----|
G|--------------------------------------------------------|
D|--------------------------------------------------------|
A|--------------------------------------------------------|
E|--------------------------------------------------------|

e|------------------------------------------------------------------------------------------|
B|------------------------------------------------------------------------------------------|
G|----------------------------------------4-------------------------------------------------|
D|----------------------------------------4-------------------------------------------------|
A|----------------------------------------2-(play this chord on the 4th "2" of the bridge)--|
E|------------------------------------------------------------------------------------------|

Chorus-

Guitar 1-
"I'm dead! I'm dead!..."
e|------------------------------------------------------------------------------|
B|------------------------------------------------------------------------------|
G|-6-------------------4--------------------------------------------------------|
D|-6------2------7-----4---2-1--------------------------------------------------|
A|-4(x4)---2------7-----2-4-----------------------------------------------------|
E|--------0(x4)---5(x4)---------------------------------------------------------|

Guitar 2-

e|------------------------------------------------------------------------------|
B|------------------------------------------------------------------------------|
G|-6---------------------4------------------------------------------------------|
D|-6------2-------7------4------------------------------------------------------|
A|-4(x4)---2-------7------2(x4)-------------------------------------------------|
E|---------0(x4)---5(x4)--------------------------------------------------------|

do this twice

Postchorus-

Guitar 1-

"whoa... whoa..."
e|----------------------------------------------------------|
B|----------------------------------------------------------|
G|----------------------------------------------------------|
D|-xx-11--xx-11--xx-11--xx-11-xx-14-xx-14-xx-14-xx-14-------|
A|-xx--x--xx--x--xx--x--xx--x--xx-x--xx--x-xx--x-xx--x------|
E|-xx--9--xx--9--xx--9--xx--9--xx-12-xx-12-xx-12-xx-12------|

e|------------------------------------------------------|
B|------------------------------------------------------|
G|-xx-14-xx-14-xx-14-xx-14-xx-13-xx-13-xx-13-xx-13------|
D|-xx--x-xx-x--xx--x-xx--x-xx--x--xx-x--xx-x--xx-x------|
A|-xx-12-xx-12-xx-12-xx-12-xx-11-xx-11-xx-11-xx-11------|
E|------------------------------------------------------|

do this twice

then-

Main Riff:

Guitar 1-

e|-----------------------------------------------------------------------------|
B|-7-7-0-0-7-7-0-0-7-7-0-0-----9-8---------------------------------------------|
G|---------------------------11------------------------------------------------|
D|-----------------------------------------------------------------------------|
A|-----------------------------------------------------------------------------|
E|-----------------------------------------------------------------------------|

Outro:

Guitar 1-

e|-----------------------------------------------------------------------------|
B|-----------------------------------------------------------------------------|
G|-------9-8-----------9-8-----------------------------------------------------|
D|-11-11-----11-11-11----------------------------------------------------------|
A|-----------------------------------------------------------------------------|
E|-----------------------------------------------------------------------------|

Guitar 2-

e|---------------------------------------------------------------------------|
B|---------------------------------------------------------------------------|
G|-6---------------------4---------------------------------------------------|
D|-6------2-------7------4---------------------------------------------------|
A|-4------2-------7------2---------------------------------------------------|
E|--------0-------5----------------------------------------------------------|

do this x2 then-

Guitar 1-

e|-----------------------------------------------------------------------------|
B|-----------------------------------------------------------------------------|
G|-------9-8-----------9-8-9---------------------------------------------------|
D|-11-11-----11-11-11----------------------------------------------------------|
A|-----------------------------------------------------------------------------|
E|-----------------------------------------------------------------------------|

Guitar 2-

e|---------------------------------------------------------------------------|
B|---------------------------------------------------------------------------|
G|-6---------------------4---------------------------------------------------|
D|-6------2-------7------4---------------------------------------------------|
A|-4------2-------7------2---------------------------------------------------|
E|--------0-------5----------------------------------------------------------|

then:

Guitar 1-

e|-----------------------------------------------------------------------------|
B|-7-7-0-0-7-7-0-0-7-7-0-0-----9-8---------------------------------------------|
G|---------------------------11------------------------------------------------|
D|-----------------------------------------------------------------------------|
A|-----------------------------------------------------------------------------|
E|-----------------------------------------------------------------------------|

End:

Guitar 1-

e|-----------------------------------------------------------------------------|
B|-----------------------------------------------------------------------------|
G|-6-8-9-11-9------------------------------------------------------------------|
D|-----------------------------------------------------------------------------|
A|-----------------------------------------------------------------------------|
E|-----------------------------------------------------------------------------|

Guitar 2-

e|-----------------------------------------------------------------------------|
B|-----------------------------------------------------------------------------|
G|-6-6-6-6-6-------------------------------------------------------------------|
D|-6-6-6-6-6-------------------------------------------------------------------|
A|-4-4-4-4-4-------------------------------------------------------------------|
E|-----------------------------------------------------------------------------|

I hope this helped, my last one was rubbish so I thought I'd post this one.

            
            
Suggest correction
Creating personal tab
Creating personal tab
You can edit any tab online and save it as your Personal.

You can edit, replace or remove any tab part or add personal notes – all changes will be seen only by you.

Personal tabs can be accessed anytime from any device, even offline.
Learn more »
comments
print report bad tab
5 comments total. Showing first comments.
0 reply
FidoFletch 52 Nov 03, 2006 03:17 AM

Well. I just gave a 4 star rating first cause i dont know about others thought about this tab. But from what I've seen, I think that the tab is ALMOST PERFECT cause i've watched Anti-Flag played live on Warped Tour. I dont know. Im not the greatest guitarist in the world. Just assumin' that the tab was alright i guess after watching them playing. *Sorry if its too long.*

0 reply
FidoFletch 52 Nov 03, 2006 03:22 AM

Yeah. I think that its ALMOST PERFECT. Rather than the previous tab. Gd Job.

0 reply
FidoFletch 52 Nov 03, 2006 03:24 AM

One more thing. I think its PERFECT!

guest
You may want to rate the tab now too:
select rating
Wanna post a correction for this tab? Suggest correction